Oops, an error
Loading. Please wait.

The Tempest intro tab

version 1
version 1

Intro

Interactive

164 views 3 this week
no commentswrite comment
1 2 3 4 5
3 more votes to show rating
add to favorites
×
Save as Personal and add changes to this tab that will be seen only by you. Learn more ›
×
You can save this tab as Personal to edit and correct it or add notes. All changes will be seen only by you. Learn more »
launch autoscroll
font size
0
reset
how to read this tab
guitar tuner
edit
Autoscroll
slow
fast
+/-
esc
set tempo
stop
The Tempest Intro------------------------

i've decided to tab out the intro to this amazing song as the other tabs do not have the full
phrases, these are the intervals/chords played on the Brixton Academy Live DVD which 
should be
very similar to the recorded version.
some of the streches are quite tricky but it sounds great when up to speed, these may 
not be
the exact frets, but they are all the right notes.

BTW, the song is played in Eb tuning and you can easily see the capo on the 2nd fret in the
video, but he takes it off after the intro. each chord is fingerpicked once only, but he uses
delay to make it have that short stacatto sound. timing is not given.

Eb Tuning, Capo 2nd fret
with delay


fingerpicked

|------------------------------------|
|------------------------------------|
|----4--2--7--6--4-----4--2----------|
|-2-----------------2--------4-5-2---|
|----2--0--5--4--2-----2--0----------|
|-0-----------------0--------2-3-0---|

|------------------------------------|
|------------------------------------|
|----4--2--7--6--4--2--2-------------|
|-2-----------------------5--4--2----|
|----2--0--5--4--2-----0-----0-------|   *not entirely sure about the bass notes here*
|-0-----------------0-----0-----0----|

|------------------------------------|
|----------3--2----------------------|
|----4--2--------4--2--4--2----------|
|-2--------------------------4--2----|
|-0--0--------------3--5-------------|
|-------3--3--3--3--------0--0--0----|

|------------------------------------||
|----------3--2----------------------||
|----4--2--------4-----2-------------||
|-2-----------------2-----2----------||
|-0--0--------------3--5-------------||
|-------3--3--3--3--------0----------||

            
            
Suggest correction
Creating personal tab
Creating personal tab
You can edit any tab online and save it as your Personal.

You can edit, replace or remove any tab part or add personal notes – all changes will be seen only by you.

Personal tabs can be accessed anytime from any device, even offline.
Learn more »
Give kudos to tab author, rate the tab!
1 2 3 4 5
comments
print report bad tab
guest
You may want to rate the tab now too:
select rating
Wanna post a correction for this tab? Suggest correction