Oops, an error
Loading. Please wait.

The Tempest Tab

version 4
version 4

Interactive

962 views 1 this week
no commentswrite comment
1 2 3 4 5
please rate
add to favorites
launch autoscroll
font size
0
reset
how to read this tab
guitar tuner
Tab Pro tools
  • play this tab
  • loop segment
  • change instrument
  • show fretboard
  • metronome
×
Best way to learn
"The Tempest"
Autoscroll
slow
fast
+/-
esc
set tempo
stop
Tuning-Standard half a step down


Intro
Clean with delay
eb/----------------------------------------------------------------|
Bb/----------------------------------------------------------------|
Gb/-------6-6---4--4---9--9-8-------6-6--4-4--4--------------------| x2
db/---4-4----------------------4-4--------------6h7p6--4-----------|
ab/----------------------------------------------------------------|
Eb/----------------------------------------------------------------|

eb/----------------------------------------------------------------|
Bb/----------------------------------------------------------------|
Gb/--6--6----6-6---6----9---9-----9--9-----9----4--4----4-4---4----|
db/--4----4------4------11-----11-------11------4-----4-----4------|
ab/----------------------------------------------------------------|
Eb/----------------------------------------------------------------|


eb/------------------------------------------------------|
Bb/------------------------------------------------------|
Gb/--3--3---3-3---3  and so on---------------------------|
db/--4----4-----4----------------------------------------|
ab/------------------------------------------------------|
Eb/------------------------------------------------------|

Verse and chorus..distorted, reverb and all the other good stuff
(as far as the little fills and the solo you can listen to the song and play what you 
is right)
eb/----------------------------------------------------------------------|
Bb/----------------------------------------------------------------------|
Gb/--7-6--9--------------------------------------------------------------|
db/--7-6--9---7--4----2h4---------4--------------------------------------|
ab/--5-4--7---7--4-----------------------0h2-2-2-2-2-2-2/4--0------------|   and so on
Eb/-----------5--2---------2-2--2----2-----------------------------------|

(while you are letting your guard down...different types of struming once again listen 
the song)
eb/------------------|
Bb/------------------|
Gb/---------7--9--4--|
db/-4--4----7--9--4--|x a few times
ab/-4--4----5--7--2--|
Eb/-2--2-------------|


Right before the techno part
eb/-----------------------------------------------------------------------|
Bb/-----------------------------------------------------------------------|
Gb/--------------------------------------------------9--------------------|
db/--4--6--7-9-11--9--10-12--14 x2 and then---12/11--9-7---4--------------|
ab/--4--6--7-9-11--9--10-12--14---------------12/11--7-7---4--------------|
Eb/--2--4--5-7-9---7--9--10--12---------------10/9-----5---2--------------|


feel free to comment, email is w4t2h0@gmail.com. have fun
comments
We did not receive enough feedback on this tab! Please rate:
print report bad tab
1 2 3 4 5
I want to post or [tab]
guest
You may want to rate the tab now too:
select rating
Please do not post tabs as comments. Select "correction" instead!