Oops, an error
Loading. Please wait.

The Tempest Tab

version 5
version 5

Interactive

2,630 views 1 this week
no commentswrite comment
1 2 3 4 5
please rate
add to favorites
launch autoscroll
font size
0
reset
how to read this tab
guitar tuner
Tab Pro tools
  • play this tab
  • loop segment
  • change instrument
  • show fretboard
  • metronome
×
Best way to learn
"The Tempest"
Autoscroll
slow
fast
+/-
esc
set tempo
stop
Contributor
------------------------------------------------------------------------------
                             The Tempest - Pendulum
-------------------------------------------------------------------------------
Tabbed by: Ian McAlpine ( The Ian Broadcast ) http://www.youtube.com/theianbroadcast to 
my guitar vids
Email:

Tuning: Drop D

e|---------------------------------------------------------------------------------------|
B|---------------------A-----------------------------------------------------------------|
G|---------------------------------------------------------------------------------------|
D|--11--10--13--6--8--------3--3-----3--3-------3--3------3--3-------3--3-----3--3-------|
A|--11--10--13--6--8--6h8---3--3--6--3--3--6h8--3--3--6---3--3--6h8--3--3--6--3--3-------|
D|--11--10--13--6--8--------3--3-----3--3-------3--3------3--3-------3--3-----3--3-------|

e|-------------------------------------------------------------------------------|
B|-------------------------------------------------------------------------------|
G|-------------------------------------------------------------------------------|
D|--8>>>>--10--7--(X4 Times from A)----------------------------------------------|
A|--8>>>>--10--7-----------------------------------------------------------------|
D|--8>>>>--10--7-----------------------------------------------------------------|

e|-------------------------------------------------------------------------------|
B|-------------------------------------------------------------------------------|
G|-------------------------------------------------------------------------------|
D|---3-(x9)---11--10--13--6--8----(X2)-------------------------------------------|
A|---3-------11--10--13--6--8----------------------------------------------------|
D|---3-------11--10--13--6--8----------------------------------------------------|

-------------------------------------------------------------------------------|CHORUS
e|-----------------------------------------------------------------------------|
B|-----------------------------------------------------------------------------|
G|-----------------------------------------------------------------------------|
D|---3>>>>--6>>>>--13>>>>--8>>>>---(X3)--3>>>>--6>>>>--8-----------------------|
A|---3>>>>--6>>>>--13>>>>--8>>>>--------3>>>>--6>>>>--8------------------------|
D|---3>>>>--6>>>>--13>>>>--8>>>>--------3>>>>--6>>>>--8------------------------|

e|---------------------------------------------------------------------------|
B|---------------------------------------------------------------------------|
G|---------------------------------------------------------------------------|
D|--3--5--6--8--10--8--10--11--13--15------3--5--6--8--10--11--10--13--6--3--|
A|--3--5--6--8--10--8--10--11--13--15------3--5--6--8--10--11--10--13--6--3--|
D|--3--5--6--8--10--8--10--11--13--15------3--5--6--8--10--11--10--13--6--3--|

Please let me know if there are any errors... The Ending Is very repetitive I usually 
improv on the ending

| /  slide up
| \  slide down
| h  hammer-on
| p  pull-off
| ~  vibrato
| +  harmonic
| x  Mute note
===============================================================================
comments
We did not receive enough feedback on this tab! Please rate:
print report bad tab
1 2 3 4 5
I want to post or [tab]
guest
You may want to rate the tab now too:
select rating
Please do not post tabs as comments. Select "correction" instead!