Oops, an error
Loading. Please wait.

The Tempest Tab

version 6
version 6

Interactive

40,146 views 60 this week
4 commentsread comments
1 2 3 4 5
excellent!
x 30
add to favorites
launch autoscroll
font size
0
reset
how to read this tab
guitar tuner
Autoscroll
slow
fast
+/-
esc
set tempo
stop
Help us to improve Ultimate-Guitar.com Take our survey!
×
Author
-------------------------------------------------------------------------------
                             THE TEMPEST - Pendulum
-------------------------------------------------------------------------------
Tabbed by: Deaves
Email: Deaves201090@live.co.uk

Tuning: Standard

Awesome song.  Last track on the In Silico album.


INTRO:
This part is all played palm-muted and played clean.

e|-----------------------------------------------------------------------------------|
B|---------------4-4-3-----------------------------------4-4-3-----------------------|
G|-------5-5-3-3-------5-----5-5-3-3-------------5-5-3-3-------5-----3-3-1-1-0-0-----|
D|---3-3-----------------3-3---------5-5-3---3-3-----------------3-3-------------3---|
A|-----------------------------------------------------------------------------------|
E|-----------------------------------------------------------------------------------|
  PM . . . . . . . . . . . . . . . . . . .   . . . . . . . . . . . . . . . . . . .   

e|----------------------------------------------------------------------------|
B|---------------4-4-3-----------------------------------4-4-3----------------|
G|-------5-5-3-3-------5-----5-5-3-3-------------5-5-3-3-------5-----3-3------|
D|---3-3-----------------3-3---------5-5-3---3-3-----------------3-3------3---|
A|------------------------------------------------------------------------3---|
E|------------------------------------------------------------------------1---|
  PM . . . . . . . . . . . . . . . . . . .   . . . . . . . . . . . . . .  



VERSE (0:25):

e|---------------------------------------------------------------|
B|------------------4--4--4-4--4---------------------------------|
G|---5--5--5-5--5------------------3--3--3-3--3---2--2--2-2--2---|
D|---------------------------------------------------------------|  X 2
A|---------------------------------------------------------------|
E|---------------------------------------------------------------|

I think the guitar stops until about 1:51, then this is played with plenty of distortion:

e|---------------|
B|---------------|
G|---6-5-8-------|
D|---6-5-8-6-3---|
A|---4-3-6-6-3---|
E|---------4-1---|

Straight after:
VERSE 2 starts after you've played the next part twice.

e|-----------------------------------------------------------------------------------|
B|-----------------------------------------------------------------------------------|
G|-----------------------------------------------------------------------------------|
D|---1h3--------1-------1h3--------1-------1h3--------1------------------------------| X4
A|-----------------------------------------------------------1--1--1-1-1-1-1-1-3-----|
E|-------1--1-1---1--1------1--1-1---1--1------1--1-1---1--1---------------------4---|

e|----------------------------------------------------------------------------------------------|
B|----------------------------------------------------------------------------------------------|
G|----------------------------------------------------------------------------------6-5-8-------|
D|-3-3-3-3-3-3-3-3-3-3-3-3-3-3-3-3-3-3-3-3-3-3-3-3-3-3-3-3-3-3-3-3-3-3-3-3-3-3-3-3--6-5-8-6-3---X2
A|-3-3-3-3-3-3-3-3-3-3-3-3-3-3-3-3-3-3-3-3-3-3-3-3-3-3-3-3-3-3-3-3-3-3-3-3-3-3-3-3--4-3-6-6-3---|
E|-1-1-1-1-1-1-1-1-1-1-1-1-1-1-1-1-1-1-1-1-1-1-1-1-1-1-1-1-1-1-1-1-1-1-1-1-1-1-1-1--------4-1---|
  PM   . . . .   . .   . . . .   . . . .   . .   . . . .   . . . .   . .   . . . .

e|-----------------------------------------------------------------------------------|
B|-----------------------------------------------------------------------------------|
G|-----------------------------------------------------------------------------------|
D|---1h3--------1-------1h3--------1-------1h3--------1------------------------------| X 2
A|-----------------------------------------------------------1--1--1-1-1-1-1-1-3-----|
E|-------1--1-1---1--1------1--1-1---1--1------1--1-1---1--1---------------------4---|


CHORUS:

I'm not entirely sure what the strumming pattern is for this part but I've had a 
go and I think it's near enough...

e|----------------------------------------------|
B|----------------------------------------------|
G|----------------------------------------------|
D|---------------6--6-6-6/8--8-8-8--------------| X 4
A|---3--3-3-3-3--4--4-4-4/6--6-6-6-8--8-8-8-8---|
E|---1--1-1-1-1--------------------6--6-6-6-6---|


BRIDGE:

e|----------------------------------------------------------------|
B|----------------------------------------------------------------|
G|----------------------------------------------------6-5-8-------|
D|----------------------------1--3--------------------6-5-8-6-3---|
A|------------1--3---1--3--4-------------------1--3---4-3-6-6-3---|
E|---1--3--4--------------------------1--3--4---------------4-1---|


VERSE 3:

e|-----------------------------------------------------------------------------------|
B|-----------------------------------------------------------------------------------|
G|-----------------------------------------------------------------------------------|
D|---1h3--------1-------1h3--------1-------1h3--------1------------------------------| X 3
A|-----------------------------------------------------------1--1--1-1-1-1-1-1-3-----|
E|-------1--1-1---1--1------1--1-1---1--1------1--1-1---1--1---------------------4---|


CHORUS:

e|----------------------------------------------|
B|----------------------------------------------|
G|---------------6--6-6-6/8--8-8-8--------------|
D|---3--3-3-3-3--6--6-6-6/8--8-8-8-8--8-8-8-8---| X 4
A|---3--3-3-3-3--4--4-4-4/6--6-6-6-8--8-8-8-8---|
E|---1--1-1-1-1--------------------6--6-6-6-6---|


The next guitar part is after this synth 'interlude'.
(which I've tabbed because it sounds good if you pluck the strings rather than use a pick).
If you wanted to play the next synth bit it goes something like this:

e|--------------------------|
B|-----------9--6---8-9-6---|
G|-------5-8------8---------|
D|---6-8--------------------| X3
A|--------------------------|
E|--------------------------|

e|-------------------------------------------------|
B|-----------9--6---8-9-6-----------9--6-----------|
G|-------5-8------8-------------5-8------8---------|
D|---6-8--------------------6-8------------8-6-----| Repeat until the end.
A|---------------------------------------------8---|
E|-------------------------------------------------|


The last guitar part comes in at the same time the second lot of synth above does.

e|---------------------------------------------------|
B|---------------------------------------------------|
G|---------------------------------------------------|
D|---------------------------------------------------| Repeat until the end.
A|---------1-3---4-3-6-------------1-3---4-3---------|
E|---1-1-4-------------4-1---1-1-4-----------4-1-1---|


Aaaand that's it.
Feel free to email me if you think anything's wrong :)
Suggest correction
comments
print report bad tab
4 comments total. Showing first comments.
+5 reply
kaktus_jack 10 wrote on October 19 2010, 12:59 pm

GREAT tab! super fun to play :)

i have a suggestion for the ending though, i play it like this:

synth part

e|-------------------------------------------------|
B|--------------6---8-9-6--------------6-----------|
G|-------5-8-8----8-------------5-8-8----8---------|
D|---6-8--------------------6-8------------8-6-----|
A|---------------------------------------------8---|
E|-------------------------------------------------|

guitar part

e|---------------------------------------------------|
B|---------------------------------------------------|
G|---------------------------------------------------|
D|---------------------------------------------------|
A|---------1-3---4-3-6-------------1-3---4-3---------|
E|---1-3-4-------------4-1---1-3-4-----------4-3-1---|

so it's just one note, but sounds way better in my opinion. especially that synth part. not sure if it's right though.

0 reply
james_94 10 wrote on May 26 2014, 08:11 pm

I play the final synth part like this. The same as the comment by kaktus_jack par the final note.

e|-------------------------------------------------|
B|--------------6---8-9-6--------------6-----------|?
G|-------5-8-8----8-------------5-8-8----8-----5---|?
D|---6-8--------------------6-8------------8-6-----|?
A|-------------------------------------------------|?
E|-------------------------------------------------|

0 reply
romo14991 10 wrote on April 21 2016, 08:49 pm

i think that the bridge part would better like this

e|-----------------------------|
B|-----------------------------|
G|-------3-5---3-5-6-8-10------|
D|-------1-3---1-3-4-6-8-------| x2
A|--3-5-6----------------------|
E|--1-3-4----------------------|

guest
You may want to rate the tab now too:
select rating
Wanna post a correction for this tab? Suggest correction