Oops, an error
Loading. Please wait.

The Tempest Tab

version 7
version 7

Interactive

1,536 views 1 this week
no commentswrite comment
1 2 3 4 5
please rate
add to favorites
launch autoscroll
font size
0
reset
how to read this tab
guitar tuner
Tab Pro tools
  • play this tab
  • loop segment
  • change instrument
  • show fretboard
  • metronome
×
Best way to learn
"The Tempest"
Autoscroll
slow
fast
+/-
esc
set tempo
stop
Difficulty
intermediate
  _____________________________
  ----------------------------
  ---PENDULUM - THE TEMPEST---
  ----Tabbed By WillLevers----
  Email: FrigFrag@Hotmail.co.uk
  _____________________________

KEY
Pm - Palm Muted
h - Hammer on 
p - Pull off



Tuning: Standard EADGBe

 Intro - clean
e|---------------------------------------------------------------------------|
B|--------------4-4-3--------------------------------------------------------|
G|------5-5-3-3-------5-----5-5-3-3------------------------------------------|
D|--3-3-----------------3-3---------5-5-3------------------------------------|
A|---------------------------------------------------------------------------|
E|---------------------------------------------------------------------------|

e|---------------------------------------------------------------------------|
B|--------------4-4-3--------------------------------------------------------|
G|------5-5-3-3-------5-----3-3-1-1-0-0--------------------------------------|
D|--3-3-----------------3-3-------------3------------------------------------|
A|---------------------------------------------------------------------------|
E|---------------------------------------------------------------------------|

 Intro Verse - Clean
e|---------------------------------------------------------------------------|
B|----------------4---4-4--4--4----------------------------------------------|
G|--5---5-5--5--5---------------3---3-3--3--3--------------------------------|
D|--------------------------------------------3---3-3--3--3------------------|
A|---------------------------------------------------------------------------|
E|---------------------------------------------------------------------------|

"Because It's Just about to happen, and you'll be there..."

e|--6h8p6--------6h8p6--------6h8p6------------------------------|
B|--------6----6-------6----6------------------------------------|
G|---------------------------------------------------------------|
D|---------------------------------------------------------------|
A|---------------------------------------------------------------|
E|---------------------------------------------------------------|

"When the clouds appeared"- This Bit Is played after those lyrics

e|-----------------------------------------------------4---------|
B|------------------------------------6----------------6---------|
G|-------------------5----------------5----------------5---------|
D|--3----------------3----------------3----------------3---------|
A|---------------------------------------------------------------|
E|---------------------------------------------------------------|

e|-----------------------------------------------------6---------|
B|------------------------------------6----------------6---------|
G|-------------------5----------------5----------------5---------|
D|--3----------------3----------------3----------------3---------|
A|---------------------------------------------------------------|
E|---------------------------------------------------------------|


Build Up Begins-

e|---------------------------------------------------------------|
B|--8-------4-6---7-------764----8-------4-6---7-------764-------|
G|---------------------------------------------------------------|
D|---------------------------------------------------------------|
A|---------------------------------------------------------------|
E|---------------------------------------------------------------| 3

                      DISTORTED RIFF
e|---------------------------------------------------------------|
B|--8-------4-6---7----------------------------------------------|
G|---------------------------------------------------------------|
D|--------------------6--5--8------------------------------------|
A|--------------------4--3--6--6--3------------------------------|
E|-----------------------------4--1------------------------------|



 Distorted Guitar
e|------------------------------------------------------------|
B|------------------------------------------------------------|
G|------------------------------------------------------------|
D|--1h3-------1------1h3-----1--------------------------------|
A|--------------------------------------------------------3---|
E|------1-1-1---1-1-1----1-1-1---1-1-1--4h6-6-6-6-6-6--6----4-|

e|------------------------------------------------------------|
B|------------------------------------------------------------|
G|------------------------------------------------------------|
D|--------------------------6--5--8---------------------------|
A|--3-3-3-3-3-3-3-3-3-3-3---4--3--6--6--3---------------------|
E|--1-1-1-1-1-1-1-1-1-1-1------------4--1---------------------|

      pm-----   pm-   pm-




 Chorus - Do each chord 8 times
e|---------------------------------------------------------------------|
B|---------------------------------------------------------------------|
G|-----------------6-6-6-6-6-6-6-6-8-8-8-8-8-8-8-8---------------------|
D|-3-3-3-3-3-3-3-3-6-6-6-6-6-6-6-6-8-8-8-8-8-8-8-8-8-8-8-8-8-8-8-8-----|
A|-3-3-3-3-3-3-3-3-4-4-4-4-4-4-4-4-6-6-6-6-6-6-6-6-8-8-8-8-8-8-8-8-----|
E|-1-1-1-1-1-1-1-1---------------------------------6-6-6-6-6-6-6-6-----|



 Instrumental - Effects
e|-------------------------------------------------------------------------------|
B|-------------------------------------------------------------------------------|
G|-------------------------------------------------------------------------------|
D|--------------------1-3--------------6--5--8-----------------------------------|
A|--------1-3---1-3-4-------------1-3--4--3--6--6--3-----------------------------|
E|--1-3-4-------------------1-3-4---------------4--1-----------------------------|



 Outro - Effects
e|----------------------------------------------------------------------------|
B|----------------------------------------------------------------------------|
G|----------------------------------------------------------------------------|
D|-----------------1----------------------------------------------------------|
A|--------1-3--4-3---------------1-3--4-3-------------------------------------|
E|--1-3-4------------4-1---1-3-4----------4-4-1-------------------------------|



Enjoy :D
comments
We did not receive enough feedback on this tab! Please rate:
print report bad tab
1 2 3 4 5
I want to post or [tab]
guest
You may want to rate the tab now too:
select rating
Please do not post tabs as comments. Select "correction" instead!