Oops, an error
Loading. Please wait.

The Tempest Tab

version 8
version 8

Interactive

1,589 views 1 this week
no commentswrite comment
1 2 3 4 5
3 more votes to show rating
add to favorites
launch autoscroll
font size
0
reset
how to read this tab
guitar tuner
Autoscroll
slow
fast
+/-
esc
set tempo
stop
Help us to improve Ultimate-Guitar.com Take our survey!
×
Author
Difficulty
-----------------------------------------------------------------------------
                             The Tempest - Pendulum
-----------------------------------------------------------------------------
Tabbed by: PendulumMan24
Tuning: Standard

Sorry I wasn't really sure about what the parts were called and I will write up 
all the parts and then I will write the song pattern out at the bottom, Enjoy!

Intro
e|-----------------------------|
B|-----------------------------|
G|--------887------------------| x4
D|--101088-------101088--------|
A|88----------888------10h11h10|
E|-----------------------------|

Verse 1
e|------------------------|
B|------------------------|
G|------888888------------| x4
D|------------888888777777|
A|888888------------------|
E|------------------------|

Verse 2
e|----------------|
B|----------------|
G|1010101010101010| x8
D|1010101010101010|
A|8-8-8-8-8-8-8-8-|
E|----------------|

Pre-Verse
e|-----------|
B|-----------|
G|-----------| x3
D|-6-13-4-3b1|
A|-----------|
E|-----------|

Pre-Verse Cont.
e|------------|
B|------------|
G|---------1--|
D|-6-13-43b---|
A|----------41|
E|------------|

Verse 3
e|---------------------------------------|
B|---------------------------------------|
G|---------------------------------------| x4
D|1h3--1--1h3--1--1h3--1-----------------|
A|------------------------11111111111h3--|
E|---11-11---11-11---11-11-------------4b|

Instrumental
E|---------------------------------------------|
B|---------------------------------------------|
G|---------------------------------------------| x2
D|------------------------------------------1--|
A|333333333333333333333333333333333333333-43---|
E|111111111111111111111111111111111111111----41|

Chorus
e|---------------------------------------------------------|
B|---------------------------------------------------------|
G|---------------------------------------------------------|
D|---------------------------------------------------------|
A|---------------------------------------------------------|
E|1118888\6--111/4444--\3\1--111/88118--\6--111/4444--/6-/8|

Bridge
e|--------------------------|
B|--------------------------|
G|--------------------------|
D|---------13---------------|
A|---13-134------13-43/10118|
E|134---------134-----------|

Euphoria
e|-------------------------------|
B|-------------------------------|
G|-------------------------------|
D|---7/8/11----/13----\10--------|
A|8------------------------------|
E|-------------------------------|

Outro
e|--------------------------|
B|--------------------------|
G|--------------------------| x8
D|--------------------------|
A|---13-431-3----13-43/10118|
E|134------4--134-----------|

Song Pattern

Intro
Verse
Verse 2
Pre-Verse
Pre-Verse Cont.
Verse 3
Instrumental
Verse 3
Chorus
Bridge
Verse 3
Chorus
Euphoria
Outro

************************************

| /   slide up
| \   slide down
| h   hammer-on
| p   pull-off
| ~   vibrato
| +   harmonic
| x   Mute note
| b   Bend
| pb  Pre-bend
| br  Bend release
| pbr Pre-bend release
| brb Bend release bend

************************************
Suggest correction
Give kudos to tab author, rate the tab!
1 2 3 4 5
comments
print report bad tab
guest
You may want to rate the tab now too:
select rating
Wanna post a correction for this tab? Suggest correction