Oops, an error
Loading. Please wait.
We have an official Witchcraft tab made by UG professional guitarists. Check out the tab »
×
74,651 views 39 this week
2 commentsread comments
1 2 3 4 5
x 10
add to favorites
×
Save as Personal and add changes to this tab that will be seen only by you. Learn more ›
×
You can save this tab as Personal to edit and correct it or add notes. All changes will be seen only by you. Learn more »
launch autoscroll
font size
0
reset
how to read this tab
guitar tuner
edit
Autoscroll
slow
fast
+/-
esc
set tempo
stop
[Intro]

(0.00 - 0.23)
"It's in your eyes.."
E|-----------------------------------------------|
B|------1----4----4----1----1----4----4----1-----|
G|-------1----5----3----3----1----5----3----3----|
D|-----3----6----6----3----3----6----6----3------|  
A|---------4----6----1---------4----6----1-------|
D|----3-------------------3----------------------|(x2)

(0.23-0.45)
"Does it feel like.."
E|--------------------------------------------------|
B|-----4-----4-----4-----4-----1-----1-----4-----4--|
G|----1-1---1-1---3-3---3-3---1-1---1-1---3-3---3-3-|
D|---3-----3-----1-----1-----1-----1-----1-----1----|
A|--------------------------------------------------|
D|--------------------------------------------------|

 "I'm looking for your hand in the rough.."
E|--------------------------------------------------|
B|-----4-----4-----4-----4-----4-----4-----4-----6--|
G|----1-1---1-1---3-3---3-3---1-1---1-1---1-1---3-3-|
D|---3-----3-----1-----1-----1-----1-----1-----1----|
A|--------------------------------------------------|
D|--------------------------------------------------|


[Chorus]

(0.45 - 1.08)
E|-----------------------------------------|
B|-----------------------------------------|
G|------------66666666--------33333333-----|
D|----33333333666666661111111133333333-----|    
A|----33333333444444441111111111111111-----|
D|----33333333--------11111111-------------|(x4)


[Pre-Verse/Main Riff]

(1.08 - 1.30)
E|------------------------------------------------|
B|------------------------------------------------|
G|--------------------------------------6-5---6---|
D|----3--3-5-3---3-3--5-6--3--3-5-3---3-----8---6-|
A|----3--------6---3-------3--------6-------------|
D|----3------------3-------3----------------------|


E|------------------------------------------------|
B|------------------------------------------------|
G|-----------------------------------------6-5----|
D|----3--3-5-3---3-3--5-6--3--3-5-3---3-3------6--|
A|----3--------6---3-------3--------6---3---------|
D|----3------------3-------3------------3---------|


E|------------------------------------------------|
B|------------------------------------------------|
G|--------------------------------------6-5---6---|
D|----3--3-5-3---3-3--5-6--3--3-5-3---3-----8---6-|
A|----3--------6---3-------3--------6-------------|
D|----3------------3-------3----------------------|


E|-----------------------------------------------|
B|-----------------------------------------------|
G|---------------------------------6-------------|
D|----3--3-5-3---3-3--5-6--33333333611111111-----|
A|----3--------6---3-------33333333411111111-----|
D|----3------------3-------33333333-11111111-----|


[Verse]

 1.30 - 1.52
 "Leading on the action..."
E|-----------------|------8----|
B|-----------------|---9-9---9-|
G|----SILENCE FOR--|-----------|
D|-------8-BARS----|--6-6------|   
A|-----------------|-----------|
D|-----------------|-----------|(x8)


[Chorus]

 1.52 - 2.14
 "You gotta get out.."
E|-----------------------------------------|
B|-----------------------------------------|
G|------------66666666--------33333333-----|
D|----33333333666666661111111133333333-----|    
A|----33333333444444441111111111111111-----|
D|----33333333--------11111111-------------|(x4)


[Pre-Verse, Main Riff]

(2.14 - 2.35)
E|------------------------------------------------|
B|------------------------------------------------|
G|--------------------------------------6-5---6---|
D|----3--3-5-3---3-3--5-6--3--3-5-3---3-----8---6-|
A|----3--------6---3-------3--------6-------------|
D|----3------------3-------3----------------------|

E|------------------------------------------------|
B|------------------------------------------------|
G|-----------------------------------------6-5----|
D|----3--3-5-3---3-3--5-6--3--3-5-3---3-3------6--|
A|----3--------6---3-------3--------6---3---------|
D|----3------------3-------3------------3---------|

E|------------------------------------------------|
B|------------------------------------------------|
G|--------------------------------------6-5---6---|
D|----3--3-5-3---3-3--5-6--3--3-5-3---3-----8---6-|
A|----3--------6---3-------3--------6-------------|
D|----3------------3-------3----------------------|

E|-----------------------------------------------|
B|-----------------------------------------------|
G|---------------------------------6-------------|
D|----3--3-5-3---3-3--5-6--33333333611111111-----|
A|----3--------6---3-------33333333411111111-----|
D|----3------------3-------33333333-11111111-----|


[Verse]

 2.35 - 2.58
 "Darkness in the bedroom.."
E|-----------------|------10---|
B|-----------------|----9----9-|
G|----SILENCE FOR--|-----------|
D|-------8-BARS----|--6--6-----|   
A|-----------------|-----------|
D|-----------------|-----------|(x8)


[Break]

(2.58 - 3.20)
 "We gotta get out.."
E|-------------------------------------|
B|-------------------------------------|
G|-------------------------------------|
D|-------------------------------------| 
A|-----------444444444-------111111111-|
D|----3333333---------1111111----------|(x4)


[Main Riff/Outro]

(3.23 - END)
E|------------------------------------------------|
B|------------------------------------------------|
G|--------------------------------------6-5---6---|
D|----3--3-5-3---3-3--5-6--3--3-5-3---3-----8---6-|
A|----3--------6---3-------3--------6-------------|
D|----3------------3-------3----------------------|

E|------------------------------------------------|
B|------------------------------------------------|
G|-----------------------------------------6-5----|
D|----3--3-5-3---3-3--5-6--3--3-5-3---3-3------6--|
A|----3--------6---3-------3--------6---3---------|
D|----3------------3-------3------------3---------|

E|------------------------------------------------|
B|------------------------------------------------|
G|--------------------------------------6-5---6---|
D|----3--3-5-3---3-3--5-6--3--3-5-3---3-----8---6-|
A|----3--------6---3-------3--------6-------------|
D|----3------------3-------3----------------------|

E|-----------------------------------------------|
B|-----------------------------------------------|
G|---------------------------------6-------------|
D|----3--3-5-3---3-3--5-6--33333333611111111-----|
A|----3--------6---3-------33333333411111111-----|
D|----3------------3-------33333333-11111111-----|

E|------------------------------------------------|
B|------------------------------------------------|
G|--------------------------------------6-5---6---|
D|----3--3-5-3---3-3--5-6--3--3-5-3---3-----8---6-|
A|----3--------6---3-------3--------6-------------|
D|----3------------3-------3----------------------|

E|------------------------------------------------|
B|------------------------------------------------|
G|-----------------------------------------6-5----|
D|----3--3-5-3---3-3--5-6--3--3-5-3---3-3------6--|
A|----3--------6---3-------3--------6---3---------|
D|----3------------3-------3------------3---------|

E|------------------------------------------------|
B|------------------------------------------------|
G|--------------------------------------6-5---6---|
D|----3--3-5-3---3-3--5-6--3--3-5-3---3-----8---6-|
A|----3--------6---3-------3--------6-------------|
D|----3------------3-------3----------------------|

E|-----------------------------------------------|
B|-----------------------------------------------|
G|---------------------------------6-------------|
D|----3--3-5-3---3-3--5-6--33333333611111111-----|
A|----3--------6---3-------33333333411111111-----|
D|----3------------3-------33333333-11111111-----|

            
            
Suggest correction
Creating personal tab
Creating personal tab
You can edit any tab online and save it as your Personal.

You can edit, replace or remove any tab part or add personal notes – all changes will be seen only by you.

Personal tabs can be accessed anytime from any device, even offline.
Learn more »
comments
print report bad tab
2 comments total.
0 reply
Xironish 10 Aug 12, 2010 02:44 AM

The "Does it feel like" part is totally incorrect. What he really plays:

|—————------------------------------------------------------------|
|-----4-------4-------4-------4-------1-------1-------------------|
|—--1---1---1---1---3---3---3---3-------1-------1-----8-------8---|
|-----------------1-------1---------3-------3-------6---6---6---6-|
|-4-------4-------------------------------------------------------|
|---------------------------------3-------3-------6-------6———|


Also you forgot to mention your tab is in Drop D, for those who can't figure it out themselves...
Other than that, nice tab!

0 reply
LordCheese1 10 Apr 19, 2011 01:11 AM

Also, when you put
"We gotta get out.."
E-------------------------------------|
B-------------------------------------|
G-------------------------------------|
D-------------------------------------| x4
A-----------444444444-------111111111-|
D----3333333---------1111111----------|

Only the bass plays this part

guest
You may want to rate the tab now too:
select rating
Wanna post a correction for this tab? Suggest correction