Oops, an error
Loading. Please wait.

Perpetuum Mobile intro tab

version 1
version 1

Intro

Interactive

370 views 6 this week
2 commentsread comments
1 2 3 4 5
2 more votes to show rating
add to favorites
×
Save as Personal and add changes to this tab that will be seen only by you. Learn more ›
×
You can save this tab as Personal to edit and correct it or add notes. All changes will be seen only by you. Learn more »
launch autoscroll
font size
0
reset
how to read this tab
guitar tuner
edit
Autoscroll
slow
fast
+/-
esc
set tempo
stop
Author
E|---------------------|-----------8---------|---------------------|---------------------|
B|----------------8----|------10-------------|-----------8---------|---------------------|
G|------9--------------|---------------------|-9-------------------|---------------------|
D|-10--------10--------|-10-------------10---|------10--------10---|-12---10---9----10---|
A|---------------------|---------------------|---------------------|---------------------|
E|---------------------|---------------------|---------------------|---------------------|

You can also capo the 8th fret to make it a little easier to play

E|---------------------|-----------0---------|---------------------|---------------------|
B|----------------0----|------2--------------|-----------0---------|---------------------|
G|------1--------------|---------------------|-1-------------------|---------------------|
D|-2---------2---------|-2--------------2----|------2---------2----|-4----2----1----2----|
A|---------------------|---------------------|---------------------|---------------------|
E|---------------------|---------------------|---------------------|---------------------|


I don't know what the strings are playing hopefully someone can figure that out
Suggest correction
Creating personal tab
Creating personal tab
You can edit any tab online and save it as your Personal.

You can edit, replace or remove any tab part or add personal notes – all changes will be seen only by you.

Personal tabs can be accessed anytime from any device, even offline.
Learn more »
Give kudos to tab author, rate the tab!
1 2 3 4 5
comments
print report bad tab
2 comments total.
+1 reply
adamlooker 10 May 14, 2017 10:31 AM

Thanks!

0 reply
madartist4real 10 6 days ago

really good tab for a really good song. thanks

guest
You may want to rate the tab now too:
select rating
Wanna post a correction for this tab? Suggest correction