Oops, an error
Loading. Please wait.

Cry This Blood For Me Tab

version 1
version 1

Intro

Interactive

239 views 1 this week
1 commentread comment
1 2 3 4 5
please rate
add to favorites
launch autoscroll
font size
0
reset
how to read this tab
guitar tuner
Autoscroll
slow
fast
+/-
esc
set tempo
stop
Help us to improve Ultimate-Guitar.com Take our survey!
×
Author
Difficulty
Tuning
intermediate
C G C F A D
Wicked song i'm not sure on this completely but it's the gist of it i think!
any comments or corrections trivium_anthrax@hotmail.com cheers.

C-Tuning

d|---------------------------------------------------------------------------|
a|---------------------------------------------------------------------------|
f|---------------------------4-------------------4---------------------------|
c|-----6-7p6p4-(or-7p6p0)--67-76-----6h7p6-----67-76-------------------------|
g|------------------------------7-------------------7------------------------|
c|--44------------------99---------00------00-0------------------------------|
pm| **                  **         **      ** *
Suggest correction
What's this?
You can suggest a correction to this tab. Community and Mods will review your correction and vote to approve or reject it.
comments
We did not receive enough feedback on this tab! Please rate:
print report bad tab
1 2 3 4 5
1 comment total.
0 reply
killswitch_mike 1,111 wrote on May 27 2007, 03:06 pm

I thought it went like this;

D|-----------------------------------|
A|-----------------------------------|
F|-----------------------------------|
C|------7-8h7--------7-8/10-8-7-0----|
G|--------------8--------------------|
C|--5-5-------5----5-----------------|


Then it repeats but instead mute 0's on the low c not 5's.

guest
You may want to rate the tab now too:
select rating
Please do not post tabs as comments. Select "correction" instead!