Oops, an error
Loading. Please wait.

Lady Bump bass

19 views 3 this week
no commentswrite comment
1 2 3 4 5
2 more votes to show rating
add to favorites
×
Save as Personal and add changes to this tab that will be seen only by you. Learn more ›
×
You can save this tab as Personal to edit and correct it or add notes. All changes will be seen only by you. Learn more »
launch autoscroll
font size
0
reset
guitar tuner
edit
Autoscroll
slow
fast
+/-
esc
set tempo
stop
Artist: Penny McLean 
Song: Lady Bump
Tuning - Standard
tabbed by electricbunny

[Intro]                                                             
G|--------------------------------|2---0---------------------------|
D|--------------------------------|--------------------------------|
A|3-------------------------------|--------------------------------|
E|--------------------------------|--------------------------------|
 
G|----------------------------0---|2---0---------------------------|
D|------------------------2-------|--------------------------------|
A|0-------------------------------|--------------------------------|
E|--------------------------------|--------------------------------|
 
G|--------------------------------|2---0---------------------------|
D|--------------------------------|--------------------------------|
A|0-------------------------------|--------------------------------|
E|--------------------------------|--------------------------------|
 
G|--------------------------------|----------12-14-----------------|
D|--------------------------------|--------15------12--14--15------|
A|--------------------------------|----------------------------0---|
E|3---3---3---3---3---3---3---3---|3-------------------------------|
 
[Verse]                                                             
G|--------------------------------|--------------------------------|
D|--------------------------------|--------------------------------|
A|3-------0-------3-----------0---|3-----------0---3---0-------0---|
E|--------------------------------|--------3---------------3-------|
 
G|--------------------------------|--------------------------------|
D|0---------------0---------------|0---------------0---------------|
A|------------3-3---------0---3---|--------0---3-------3---0---3---|
E|--------------------------------|--------------------------------|
 
G|--------------------------------|--------------------------------|
D|--------------------------------|--------------------------------|
A|3-----------0---3-----------0---|3-----------0-0-3---0-----------|
E|--------3-----------------------|------------------------3-------|
 
G|--------------------------------|--------------------------------|
D|0-------0-------0-------0-------|0-------0-------0---------------|
A|------------3---------------3---|------------3-------3---0-------|
E|--------------------------------|----------------------------3---|
 
[Pre-Chorus]                                                        
G|--------------------------------|--------------------------------|
D|2-----------0---2-----------0---|2-----------2-2-----0-2-2---2---|
A|--------2---------------2-------|--------------------------------|
E|--------------------------------|--------------------------------|
 
G|--------------------------------|--------------------------------|
D|0---------------0---------------|0---------------0---------------|
A|--------0---3-----------0---3---|--------0---3-------3---0---3---|
E|--------------------------------|--------------------------------|
 
G|--------------------------------|--------------------------------|
D|3-----------0---3-----------0---|3-----------0---3---0-------0---|
A|--------------------------------|--------------------------------|
E|--------------------------------|--------------------------------|
 
G|0---0---0---0---0---0-------0---|--------------------------------|
D|--------------------------------|--------------------------------|
A|--------------------------------|--------------------------------|
E|--------------------------------|3-----------------------3-------|
 
[Chorus]                                                            
G|--------------------------------|--------------------------------|
D|--------------------------------|--------------------------------|
A|3---3-------0---3---3---0-------|3---3-------0---3---3---0-------|
E|--------3-------------------3---|--------3-------------------3---|
 
G|--------------------------------|--------------------------------|
D|--------------------------------|--------------------------------|
A|0---0-----------0---0-----------|0---0-------------------0---3---|
E|--------0---3-----------0---3---|--------0---3-------3-----------|
 
G|--------------------------------|--------------------------------|
D|3---3-------0---3---3-------0---|3---3-------0---3---3-------0---|
A|--------3---------------3-------|--------3---------------3-------|
E|--------------------------------|--------------------------------|
 
G|0---0---0---0---0---0-------0---|--------------------14--12------|
D|--------------------------------|----------------14----------14--|
A|--------------------------------|--------------------------------|
E|--------------------------------|3-------------------------------|
 
G|--------------------------------|--------------------------------|
D|--------------------------------|--------------------------------| 
A|3---3-------0---3---3---0-------|3---3-------0---3---3---0-------|
E|--------3-------------------3---|--------3-------------------3---|
 
G|--------------------------------|--------------------------------|
D|--------------------------------|--------------------------------|
A|0---0-----------0---0-----------|0---0-------------------0---3---|
E|--------0---3-----------0---3---|--------0---3-------3-----------|
 
G|--------------------------------|--------------------------------|
D|3---3-------0---3---3-------0---|3---3-------0---3---3-------0---|
A|--------3---------------3-------|--------3---------------3-------|
E|--------------------------------|--------------------------------|
 
G|0---0---0---0---0---0-------0---|-------12-13-14-----------------|
D|--------------------------------|----------------12--13--14------|
A|--------------------------------|----------------------------15--|
E|--------------------------------|3-------------------------------|
 
[Verse]                                                             
G|--------------------------------|--------------------------------|
D|--------------------------------|--------------------------------|
A|3-------0-------3-----------0---|3-----------0---3---0-------0---|
E|------------------------3-------|--------3---------------3-------|
 
G|--------------------------------|--------------------------------|
D|0---------------0---------------|0---------------0---------------|
A|------------3-3---------0---3---|--------0---3-------3---0---3---|
E|--------------------------------|--------------------------------|
 
G|--------------------------------|--------------------------------|
D|--------------------------------|--------------------------------|
A|3-----------0---3-----------0---|3-----------0-0-3---0-----------|
E|--------3-----------------------|------------------------3-------|
 
G|--------------------------------|--------------------------------|
D|0-------0-------0-------0-------|0-------0-------0---------------|
A|------------3---------------3---|------------3-------3---0-------|
E|--------------------------------|----------------------------3---|
 
[Pre-Chorus]                                                        
G|--------------------------------|--------------------------------|
D|2-----------0---2-----------0---|2-----------2-2-----0-2-2---2---|
A|--------2---------------2-------|--------------------------------|
E|--------------------------------|--------------------------------|
 
G|--------------------------------|--------------------------------|
D|0---------------0---------------|0---------------0---------------|
A|--------0---3-----------0---3---|--------0---3-------3---0---3---|
E|--------------------------------|--------------------------------|
 
G|--------------------------------|--------------------------------|
D|3-----------0---3-----------0---|3-----------0---3---0-------0---|
A|--------------------------------|--------------------------------|
E|--------------------------------|--------------------------------|
 
G|0---0---0---0---0---0-------0---|--------------------------------|
D|--------------------------------|--------------------------------|
A|--------------------------------|--------------------------------|
E|--------------------------------|3-----------------------3-------|
 
[Chorus]                                                            
G|--------------------------------|--------------------------------|
D|--------------------------------|--------------------------------|
A|3---3-------0---3---3---0-------|3---3-------0---3---3---0-------|
E|--------3-------------------3---|--------3-------------------3---|
 
G|--------------------------------|--------------------------------|
D|--------------------------------|--------------------------------|
A|0---0-----------0---0-----------|0---0-------------------0---3---|
E|--------0---3-----------0---3---|--------0---3-------3-----------|
 
G|--------------------------------|--------------------------------|
D|3---3-------0---3---3-------0---|3---3-------0---3---3-------0---|
A|--------3---------------3-------|--------3---------------3-------|
E|--------------------------------|--------------------------------|
 
G|0---0---0---0---0---0-------0---|--------------------14--12------|
D|--------------------------------|----------------14----------14--|
A|--------------------------------|--------------------------------|
E|--------------------------------|3-------------------------------|
 
G|--------------------------------|--------------------------------|
D|--------------------------------|--------------------------------|
A|3---3-------0---3---3---0-------|3---3-------0---3---3---0-------|
E|--------3-------------------3---|--------3-------------------3---|
 
G|--------------------------------|--------------------------------|
D|--------------------------------|--------------------------------|
A|0---0-----------0---0-----------|0---0-------------------0---3---|
E|--------0---3-----------0---3---|--------0---3-------3-----------|
 
G|--------------------------------|--------------------------------|
D|3---3-------0---3---3-------0---|3---3-------0---3---3-------0---|
A|--------3---------------3-------|--------3---------------3-------|
E|--------------------------------|--------------------------------|
 
G|0---0---0---0---0---0-------0---|--------------------------------|
D|--------------------------------|--------------------------------|
A|--------------------------------|--------------------------------|
E|--------------------------------|3-------------------------------|
 
[Drum Break]                                                        
G|--------------------------------|--------------------------------|
D|--------------------------------|--------------------------------|
A|--------------------------------|--------------------------------| (x5)
E|--------------------------------|--------------------------------|
 
G|0---0---0---0---0---0-------0---|--------------------------------|
D|--------------------------------|--------------------------------|
A|--------------------------------|--------------------------------|
E|--------------------------------|------------------------3-------|
 
[Chorus]                                                            
G|--------------------------------|--------------------------------|
D|--------------------------------|--------------------------------|
A|3---3-------0---3---3---0-------|3---3-------0---3---3---0-------|
E|--------3-------------------3---|--------3-------------------3---|
 
G|--------------------------------|--------------------------------|
D|--------------------------------|--------------------------------|
A|0---0-----------0---0-----------|0---0-------------------0---3---|
E|--------0---3-----------0---3---|--------0---3-------3-----------|
 
G|--------------------------------|--------------------------------|
D|3---3-------0---3---3-------0---|3---3-------0---3---3-------0---|
A|--------3---------------3-------|--------3---------------3-------|
E|--------------------------------|--------------------------------|
 
G|0---0---0---0---0---0-------0---|--------------------14--12------|
D|--------------------------------|----------------14----------14--|
A|--------------------------------|--------------------------------|
E|--------------------------------|3-------------------------------|
 
[Outro]                                                             
G|--------------------------------|--------------------------------|
D|--------------------------------|--------------------------------|
A|3---3-------0---3---3---0-------|3---3-------0---3---3---0-------|
E|--------3-------------------3---|--------3-------------------3---|
 
G|--------------------------------|--------------------------------|
D|--------------------------------|--------------------------------|
A|0---0-----------0---0-----------|0---0---------------------------|
E|--------0---3-----------0---3---|--------0---3-------------------|
Suggest correction
Creating personal tab
Creating personal tab
You can edit any tab online and save it as your Personal.

You can edit, replace or remove any tab part or add personal notes – all changes will be seen only by you.

Personal tabs can be accessed anytime from any device, even offline.
Learn more »
Give kudos to tab author, rate the tab!
1 2 3 4 5
comments
print report bad tab
guest
You may want to rate the tab now too:
select rating
Wanna post a correction for this tab? Suggest correction