Oops, an error
Loading. Please wait.

Bro Hymn bass

version 5
version 5
15,506 views 3 this week
2 commentsread comments
1 2 3 4 5
x 10
add to favorites
×
Save as Personal and add changes to this tab that will be seen only by you. Learn more ›
×
You can save this tab as Personal to edit and correct it or add notes. All changes will be seen only by you. Learn more »
launch autoscroll
font size
0
reset
guitar tuner
backing track
0:00
0:00
edit
Autoscroll
slow
fast
+/-
esc
set tempo
stop
Author
Pennywise – bro hymn tribute

This is the complete song with all the variations, sorry for the notation-style but I 
it with a tab-program. If there are any symbols that are not clear, the explanation is at 
end.


     E  S S S S S S S S S S  E   E     E  S S S S S S S S S S S S S S
G||---------------------------------|----------------------------------|
D||---------------------------------|----------------------------------|
A||--5--5-5-5-5-5-5-5-5-5-5S-8S--7--|--3--3-3-3-3-3-3-3-3-3-3-3-3-3-3S-|
E||---------------------------------|----------------------------------|


  E  S S S S S S E  S S  E  E     E  S S S S S S S S S S S S S S
-------------------------------|---------------------------------|
-------------------------------|---------------------------------|
--8--8-8-8-8-8-8-3--3-3S-8--7--|--5--5-5-5-5-5-5-5-5-5-5-5-5-5-5-|
-------------------------------|---------------------------------|


  E  S S S S S S S S S S  E   E     E  S S S S S S S S S S S S S S
---------------------------------|----------------------------------|
---------------------------------|----------------------------------|
--5--5-5-5-5-5-5-5-5-5-5S-8S--7--|--3--3-3-3-3-3-3-3-3-3-3-3-3-3-3S-|
---------------------------------|----------------------------------|


  E  S S S S S S E  S S  E  E     E  S S S S S S S S S S S S S S
-------------------------------|---------------------------------|
-------------------------------|---------------------------------|
--8--8-8-8-8-8-8-3--3-3S-8--7--|--5--5-5-5-5-5-5-5-5-5-5-5-5-5-5-|
-------------------------------|---------------------------------|


  0:34
  E    S S S S S S S S S S  E   E     E  S S S S S S S S S S S S S S
-----------------------------------|----------------------------------|
-----------------------------------|----------------------------------|
--5----5-5-5-5-5-5-5-5-5-5S-8S--7--|--3--3-3-3-3-3-3-3-3-3-3-3-3-3-3S-|
-----------------------------------|----------------------------------|


  E  S S S S S S E  S S  E  E     E  S S S S S S S S S S S S S S
-------------------------------|---------------------------------|
-------------------------------|---------------------------------|
--8--8-8-8-8-8-8-3--3-3S-8--7--|--5--5-5-5-5-5-5-5-5-5-5-5-5-5-5-|
-------------------------------|---------------------------------|


  E  S S S S S S S S S S  E   E     E  S S S S S S S S S S S S S S
---------------------------------|----------------------------------|
---------------------------------|----------------------------------|
--5--5-5-5-5-5-5-5-5-5-5S-8S--7--|--3--3-3-3-3-3-3-3-3-3-3-3-3-3-3S-|
---------------------------------|----------------------------------|


  E  S S S S S S E  S S  E  E     S S S S S S S S S S S S S S S S
-------------------------------|----------------------------------|
-------------------------------|----------------------------------|
--8--8-8-8-8-8-8-3--3-3S-8--7--|--5-5-5-5-5-5-5-5-5-5-5-5-5-5-5-5-|
-------------------------------|----------------------------------|


  0:54
  E    S S S S S S S S S S  E   E     E  S S S S S S S S S S S S S S
-----------------------------------|----------------------------------|
-----------------------------------|----------------------------------|
--5----5-5-5-5-5-5-5-5-5-5S-8S--7--|--3--3-3-3-3-3-3-3-3-3-3-3-3-3-3S-|
-----------------------------------|----------------------------------|


  E  S S S S S S E  S S  E  E     E  S S S S S S S S S S S S S S
-------------------------------|---------------------------------|
-------------------------------|---------------------------------|
--8--8-8-8-8-8-8-3--3-3S-8--7--|--5--5-5-5-5-5-5-5-5-5-5-5-5-5-5-|
-------------------------------|---------------------------------|


  E  S S S S S S S S S S  E   E     E  S S S S S S S S S S S S S S
---------------------------------|----------------------------------|
---------------------------------|----------------------------------|
--5--5-5-5-5-5-5-5-5-5-5S-8S--7--|--3--3-3-3-3-3-3-3-3-3-3-3-3-3-3S-|
---------------------------------|----------------------------------|


  E  S S S S S S E  S S  E  E     E  S S S S S S S S S S S S S S
-------------------------------|-----------------7-5-------------|
-------------------------------|---------------------7-3-5-3-----|
--8--8-8-8-8-8-8-3--3-3S-8--7--|--5--5-5-5-5-5-5-------------5-3-|
-------------------------------|---------------------------------|


  1:15
  E    S S S S S S S S S S  E   E     E  S S S S S S S S S S S S S S
-----------------------------------|----------------------------------|
-----------------------------------|----------------------------------|
--5----5-5-5-5-5-5-5-5-5-5S-8S--7--|--3--3-3-3-3-3-3-3-3-3-3-3-3-3-3S-|
-----------------------------------|----------------------------------|


  E  S S S S S S E  S S  E  E     E  S S S S S S S S S S S S S S
-------------------------------|---------------------------------|
-------------------------------|---------------------------------|
--8--8-8-8-8-8-8-3--3-3S-8--7--|--5--5-5-5-5-5-5-5-5-5-5-5-5-5-5-|
-------------------------------|---------------------------------|


  E  S S S S S S S S S S  E   E     E  S S S S S S S S S S S S S S
---------------------------------|----------------------------------|
---------------------------------|----------------------------------|
--5--5-5-5-5-5-5-5-5-5-5S-8S--7--|--3--3-3-3-3-3-3-3-3-3-3-3-3-3-3S-|
---------------------------------|----------------------------------|


  E  S S S S S S E  S S  E  E     E  S S S S S S   S  S  S  S  S  S  S  S
-------------------------------|------------------------------------------|
-------------------------------|-----------------/12-12-12-12-12-12-12-12-|
--8--8-8-8-8-8-8-3--3-3S-8--7--|--5--5-5-5-5-5-5--------------------------|
-------------------------------|------------------------------------------|


  1:35
  E    S S S S S S S S S S  E   E     E  S S S S S S S S S S S S S S
-----------------------------------|----------------------------------|
-----------------------------------|----------------------------------|
--5----5-5-5-5-5-5-5-5-5-5S-8S--7--|--3--3-3-3-3-3-3-3-3-3-3-3-3-3-3S-|
-----------------------------------|----------------------------------|


  E  S S S S S S E  S S  E  E     E  S S S S S S   S S S S S S S S
-------------------------------|-----------------------------------|
-------------------------------|-----------------3g5-3-------------|
--8--8-8-8-8-8-8-3--3-3S-8--7--|--5--5-5-5-5-5-5-------5-3-5-3-----|
-------------------------------|-------------------------------5-3-|


  E  S S S S S S S S S S  E   E     E  S S S S S S S S S S S S S S
---------------------------------|----------------------------------|
---------------------------------|----------------------------------|
--5--5-5-5-5-5-5-5-5-5-5S-8S--7--|--3--3-3-3-3-3-3-3-3-3-3-3-3-3-3S-|
---------------------------------|----------------------------------|


  E  S S S S S S E  S S  E  E     E  S S S S S S S S S S S S S S
-------------------------------|---------------------------------|
-------------------------------|-----------------7-6-5-3-5-3-----|
--8--8-8-8-8-8-8-3--3-3S-8--7--|--5--5-5-5-5-5-5-------------5-3-|
-------------------------------|---------------------------------|


  1:55
  E    S S S S S S S S S S  E   E     E  S S S S S S S S S S S S S S
-----------------------------------|----------------------------------|
-----------------------------------|----------------------------------|
--5----5-5-5-5-5-5-5-5-5-5S-8S--7--|--3--3-3-3-3-3-3-3-3-3-3-3-3-3-3S-|
-----------------------------------|----------------------------------|


  E  S S S S S S E  S S  E  E     E  S S S S S S S S S S S S S S
-------------------------------|---------------------------------|
-------------------------------|---------------------------------|
--8--8-8-8-8-8-8-3--3-3S-8--7--|--5--5-5-5-5-5-5-5-5-5-5-5-5-5-5-|
-------------------------------|---------------------------------|


  E  S S S S S S S S S S  E   E     E  S S S S S S S S S S S S S S
---------------------------------|----------------------------------|
---------------------------------|----------------------------------|
--5--5-5-5-5-5-5-5-5-5-5S-8S--7--|--3--3-3-3-3-3-3-3-3-3-3-3-3-3-3S-|
---------------------------------|----------------------------------|


  E  S S S S S S E  S S  E  E
-------------------------------|
-------------------------------|
--8--8-8-8-8-8-8-3--3-3S-8--7--|
-------------------------------|


      E   S     E   S  S  S  S  S  S  S  S  S  S  S
----------------------------------------------------|
--10g12--12-10g12--12-12-12-12-10-------------------|
----------------------------------12-11-12-10-------|
----------------------------------------------12-10-|


  2:16
  E    S S S S S S S S S S  E   E     E  S S S S S S S S S S S S S S
-----------------------------------|----------------------------------|
-----------------------------------|----------------------------------|
--5----5-5-5-5-5-5-5-5-5-5S-8S--7--|--3--3-3-3-3-3-3-3-3-3-3-3-3-3-3S-|
-----------------------------------|----------------------------------|


  E  S S S S S S E  S S  E  E     E  S S S S S S S S S S   S S S S
-------------------------------|-------------------------5g7-5-----|
-------------------------------|-----------------------5-------7-5-|
--8--8-8-8-8-8-8-3--3-3S-8--7--|--5--5-5-5-5-5-5-5-5-5-------------|
-------------------------------|-----------------------------------|


  E  S S S S S S S S S S  E   E     E  S S S S S S S S S S S S S S
---------------------------------|----------------------------------|
---------------------------------|----------------------------------|
--5--5-5-5-5-5-5-5-5-5-5S-8S--7--|--3--3-3-3-3-3-3-3-3-3-3-3-3-3-3S-|
---------------------------------|----------------------------------|


  E  S S S S S S E  S S  E  E     E  S S S S S S S S S S S S S S
-------------------------------|---------------------------------|
-------------------------------|-----------------7-6-5-3-5-3-----|
--8--8-8-8-8-8-8-3--3-3S-8--7--|--5--5-5-5-5-5-5-------------5-3-|
-------------------------------|---------------------------------|


  2:36
  E    E  H.              W                   W
-----------------------|-------------------|-------------------|
-----------------------|-------------------|-------------------|
--5--------------------|-------------------|-------------------|
-----------------------|-------------------|-------------------|


  W                   W                   W
-------------------|-------------------|-------------------|
-------------------|-------------------|-------------------|
-------------------|-------------------|-------------------|
-------------------|-------------------|-------------------|


  S S S S S S S S S S S S  S S S S    S S S S S S S S  S S S S S S S S
-----------------------------------|------------------/7-7-7-7-7-7-7-7-|
-----------------------------------|-----------------------------------|
--8-8-8-8-8-8-8-8-3-3-3-3S-8-8-7-7-|--5-5-5-5-5-5-5-5------------------|
-----------------------------------|-----------------------------------|


  2:55
  E    S S S S S S S S S S  E   E     E  S S S S S S S S S S S S S S
-----------------------------------|----------------------------------|
-----------------------------------|----------------------------------|
--5----5-5-5-5-5-5-5-5-5-5S-8S--7--|--3--3-3-3-3-3-3-3-3-3-3-3-3-3-3S-|
-----------------------------------|----------------------------------|


  E  S S S S S S E  S S  E  E     E  S S S S S S S  S S S S S S S
-------------------------------|-----------------5h-7-7-5-7-5-----|
-------------------------------|------------------------------7-5-|
--8--8-8-8-8-8-8-3--3-3S-8--7--|--5--5-5-5-5-5-5------------------|
-------------------------------|----------------------------------|


  E  S S S S S S S S S S  E   E     E  S S S S S S S S S S S S S S
---------------------------------|----------------------------------|
---------------------------------|----------------------------------|
--5--5-5-5-5-5-5-5-5-5-5S-8S--7--|--3--3-3-3-3-3-3-3-3-3-3-3-3-3-3S-|
---------------------------------|----------------------------------|


  E  S S S S S S E  S S  E  E     E  S S S S S S S S S S S S S S
-------------------------------|---------------------------------|
-------------------------------|-----------------7-6-5-3-5-3-----|
--8--8-8-8-8-8-8-3--3-3S-8--7--|--5--5-5-5-5-5-5-------------5-3-|
-------------------------------|---------------------------------|


  3:16
  E    E  Q    H           W                   W
------------------------|-------------------|-------------------|
------------------------|-------------------|-------------------|
--5----L--L----L--------|-------------------|-------------------|
------------------------|-------------------|-------------------|


  W                   E  Q    Q.      E   E     E  Q    Q    Q    E
-------------------|-------------------------|-----------------------|
-------------------|-------------------------|-----------------------|
-------------------|--5--L----L------/8S--7--|--3--L----L----L----L--|
-------------------|-------------------------|-----------------------|


    S   S E  E  S S E  S S  E  E     E  S S S S S S S S S S S S S S
----------------------------------|---------------------------------|
----------------------------------|---------------------------------|
--3g8-3g8-L--8--8-8-3--3-3S-8--7--|--5--5-5-5-5-5-5-5-5-5-5-5-5-5-5-|
----------------------------------|---------------------------------|


  3:36
  E    S S S S S S S S S S  E   E     E  S S S S S S S S S S S S S S
-----------------------------------|----------------------------------|
-----------------------------------|----------------------------------|
--5----5-5-5-5-5-5-5-5-5-5S-8S--7--|--3--3-3-3-3-3-3-3-3-3-3-3-3-3-3S-|
-----------------------------------|----------------------------------|


  E  Q.     E  E  E  E
------------------------|
------------------------|
--8--L------3--L--8--7--|
------------------------|


  T T T T T T T T T T T T T T T T T T T T T  T  T  T  T  T  T  T  T  T  T  T
-----------------------------------------------------------------------------|
----------------------------------5-6-7-8-9-10-11-12-12-12-12-12-12-12-12-12-|
--5-5-5-5-5-5-5-5-5-5-5-5-5-5-5-5--------------------------------------------|
-----------------------------------------------------------------------------|


   T  T  T  T  T  T  T  T  T  T  T  T  T  T  T  T  T  T  T  T  T  T  T  T  T  T
--------------------------------------------------------------------------------|
--12-12-12-12-12-12-12-12-12-12-12-12-12-12-12-12-12-12-12-12-12-12-12-12-12-12-|
--------------------------------------------------------------------------------|
--------------------------------------------------------------------------------|


   Q    E  E  Q    E  E     W                   W
-------------------------|-------------------|-------------------|
--12----L----------------|-------------------|-------------------|
-----------5-------5--L--|--L----------------|-------------------|
-------------------------|-------------------|-------------------|


  W                   W                   W
-------------------|-------------------|-------------------|
-------------------|-------------------|-------------------|
-------------------|-------------------|-------------------|
-------------------|-------------------|-------------------|


  4:09
  E    S S S S S S S S S S  E   E     E  S S S S S S S S S S S S S S
-----------------------------------|----------------------------------|
-----------------------------------|----------------------------------|
--5----5-5-5-5-5-5-5-5-5-5S-8S--7--|--3--3-3-3-3-3-3-3-3-3-3-3-3-3-3S-|
-----------------------------------|----------------------------------|


  E  S S S S S S E  S S  E  E     E  S S S S S S S S S S S S S S
-------------------------------|---------------------------------|
-------------------------------|---------------------------------|
--8--8-8-8-8-8-8-3--3-3S-8--7--|--5--5-5-5-5-5-5-5-5-5-5-5-5-5-5-|
-------------------------------|---------------------------------|


  E  S S S S S S S S S S  E   E     E  S S S S S S S S S S S S S S
---------------------------------|----------------------------------|
---------------------------------|----------------------------------|
--5--5-5-5-5-5-5-5-5-5-5S-8S--7--|--3--3-3-3-3-3-3-3-3-3-3-3-3-3-3S-|
---------------------------------|----------------------------------|


  E  Q.     E  E  E  E
------------------------|
------------------------|
--8--L------3--L--8--7--|
------------------------|


  T T T T T T T T T T T T T T T T T  T  T  T  T  T  T  T  T  T  T  T  T  T  T  T
---------------------------------------------------------------------------------|
---------------------------------------------------------------------------------|
--5-5-5-5-5-5-5-5-5-5-5-5-5-5-5-5-5b-5b-5b-5b-5b-5b-5b-5b-5b-5b-5b-5b-5b-5b-5b-5-|
---------------------------------------------------------------------------------|


  T  T  T  T  T  T  T  T  T  T  T  T  T  T  T  T  T T T T T T T T T T T T T T T
--------------------------------------------------------------------------------|
--------------------------------------------------------------------------------|
--5b-5b-5b-5b-5b-5b-5b-5b-5b-5b-5b-5b-5b-5b-5b-5b-5-5-5-5-5-5-5-5-5-5-5-5-5-5-5-|
--------------------------------------------------------------------------------|


                           W
  Q    E  E  Q    E  E     W                   W
------------------------|-------------------|--------------------|
------------------------|-------------------|--------------------|
--5----L--5-------5--L--|--L----------------|--L~----------------|
------------------------|-------------------|--------------------|


-------------------||
-------------------||
-------------------||
-------------------||


Duration Legend
---------------
W - whole
H - half
Q - quarter
E - 8th
S - 16th
T - 32nd
X - 64th
. - note dotted
|-n-|  - n-tuplets


Tablature Legend
----------------
L - tied note
x - dead note
g - grace note
(n) - ghost note
> - accentuded note
NH - natural harmonic
AH - artificial harmonic
TH - tapped harmonic
SH - semi harmonic
PH - pitch harmonic
h - hammer on
p - pull off
b - bend
br - bendRelease
pb - preBend
pbr - preBendRelease
brb - bendReleaseBend
n/ - tremolo bar dip
n - tremolo bar dive
-/n - tremolo bar Release up
/n - tremolo bar inverted dip
/n - tremolo bar return
-n - tremolo bar Release down
S - shift slide
s - legato slide
/ -  slide into from below or out of upwards
 -  slide into from above or out of downwards
~ - vibrato
W - wide vibrato
tr - trill
TP - tremolo picking
T - tapping
S - slap
P - pop
< - fade in
^ - brush up
v - brush down

            
            
Suggest correction
Creating personal tab
Creating personal tab
You can edit any tab online and save it as your Personal.

You can edit, replace or remove any tab part or add personal notes – all changes will be seen only by you.

Personal tabs can be accessed anytime from any device, even offline.
Learn more »
comments
print report bad tab
2 comments total.
+1 reply
bassie 10 Feb 03, 2008 03:48 AM

I think this one is the best.
if you lissen good you wil hear the difference
it's not just that basic bassline

0 reply
comeondude 10 Nov 21, 2008 06:33 AM

almost the entire slap? -_-

guest
You may want to rate the tab now too:
select rating
Wanna post a correction for this tab? Suggest correction