Oops, an error
Loading. Please wait.

Judgment Day Tab

version 1
version 1

Whole song

464 views 1 this week
2 commentsread comments
1 2 3 4 5
2 more votes to show rating
add to favorites
×
Save as Personal and add changes to this tab that will be seen only by you. Learn more ›
×
You can save this tab as Personal to edit and correct it or add notes. All changes will be seen only by you. Learn more »
save as personal
new!
launch autoscroll
font size
0
reset
how to read this tab
guitar tuner
Autoscroll
slow
fast
+/-
esc
set tempo
stop
Author
-------------------------------------------------------------------------------
                             Judgment Day - Pennywise
-------------------------------------------------------------------------------
Tabbed by: Zach
Email: zachmoe25@msn.com

       This is my first tab, hope i done good!!!


Tuning: E A D G B e 
    Intro 2x: Guitar #1
e|-----------------------------------------------------------------------------------------|
B|-----------------------------------------------------------------------------------------|
G|-16-16-16-16-16-16-16-16-17-17-17-17-16-16-16-16-19-19-19-19-19-19-19-19-20-20-20-20-19--|
D|-----------------------------------------------------------------------------------------|
A|-----------------------------------------------------------------------------------------|
E|-----------------------------------------------------------------------------------------|
    Intro 2x: Guitar #2
e|---------------------------------------------------------------------------|
B|---------------------------------------------------------------------------|
G|---------------------------------------------------------------------------|
D|-2--------5--------7-------------------------------------------------------|
A|-2--x8----5--x4----7--x4---------------------------------------------------|
E|-0--------3--------5-------------------------------------------------------|
    Pre-Verse 2x
e|---------------------------------------------------------------------------|
B|---------------------------------------------------------------------------|
G|---------------------------------------------------------------------------|
D|-2~~~---5~~~---7~~~--------------------------------------------------------|
A|-2~~~---5~~~---7~~~--------------------------------------------------------|
E|-0~~~---3~~~---5~~~--------------------------------------------------------|
    Verse 2x: (palm-mute 3rd verse)
e|---------------------------------------------------------------------------|
B|---------------------------------------------------------------------------|
G|---------------------------------------------------------------------------|
D|-2---------5--------7------------------------------------------------------|
A|-2--x12----5--x8----7--x8--------------------------------------------------|
E|-0---------3--------5------------------------------------------------------|
    Pre-Chorus 1x
e|---------------------------------------------------------------------------|
B|---------------------------------------------------------------------------|
G|-7--------9----------------------------------------------------------------|
D|-7--x8----9--x8------------------------------------------------------------|
A|-5--------7----------------------------------------------------------------|
E|---------------------------------------------------------------------------|
    Chorus 4x
e|---------------------------------------------------------------------------|
B|---------------------------------------------------------------------------|
G|-------------------7-------------------------------------------------------|
D|-2--------5--------7--x4----7----------------------------------------------|
A|-2--x4----5--x4----5--------7--x4------------------------------------------|
E|-0--------3-----------------5----------------------------------------------|



| /  slide up
| \  slide down
| h  hammer-on
| p  pull-off
| ~  vibrato
| +  harmonic
| x  Mute note
===============================================================================
Suggest correction
Give kudos to tab author, rate the tab!
1 2 3 4 5
comments
print report bad tab
2 comments total.
0 reply
TheRisen 253 May 25, 2004 08:00 PM

Sound ok to me...

0 reply
TheRisen 253 Jun 19, 2004 08:00 PM

The intro is wrong... It's something like this:
e-9-9-9-9-10-9--12-12-12-12-13-12--
B-7-7-7-7-7--7--10-10-10-10-10-10--
G----------------------------------
D----------------------------------
A----------------------------------
E----------------------------------

guest
You may want to rate the tab now too:
select rating
Wanna post a correction for this tab? Suggest correction