Oops, an error
Loading. Please wait.

Land Of The Free bass

version 1
version 1

Whole song

Interactive

742 views 1 this week
2 commentsread comments
1 2 3 4 5
2 more votes to show rating
add to favorites
×
Save as Personal and add changes to this tab that will be seen only by you. Learn more ›
×
You can save this tab as Personal to edit and correct it or add notes. All changes will be seen only by you. Learn more »
launch autoscroll
font size
0
reset
guitar tuner
edit
Autoscroll
slow
fast
+/-
esc
set tempo
stop
Author
Song: Land of the free?
Band: Pennywise
Album: Land of the free?

Tabbed by Travis HAyes


Intro: 
G|------------------------------|
D|------------------------------|x1
A|------22------22------22------|
E|-0000----0000----0000-----0-0-|

Verse: 
G|----------------------------------------------------------|
D|----------------------------------------------------------|x2
A|------22------------22-4-2-4------22------------2222-4444-|
E|-0000----2-4-2-0000----------0000----2-4-2-0000-----------|

Chorus: 
G|-----------------------------------------|
D|-----------------------------------------|
A|-----------2222-2222-----------4444-4444-|
E|-0000-0000-----------2222-2222-----------|

G|-----------------------------------------|
D|-----------------------------------------|
A|-----------2222-2222-----------4444-4444-|
E|-0000-0000-----------2222-2222-----------|

G|-----------------------------------------|
D|-----------------------------------------|
A|-----------2222-2222-----------4444-4444-|
E|-0000-0000-----------2222-2222-----------|

G|-----------------------------------------|
D|-----------------------------------------|
A|-6666-6666-9999-9999-----------4444-4444-|
E|---------------------2222-2222-----------|

then:
Intro x1
Verse x1
Chorus x1
Intro x1

During solo and talking: 
G|-----------------------------------------|
D|-----------------------------------------|x4
A|-6666-6666-4444-4444-2222-2222-1111-1111-|
E|-----------------------------------------|

then:
Intro x1
Chorus x1
Intro x1

End with: E|-0-|

            
            
Suggest correction
Creating personal tab
Creating personal tab
You can edit any tab online and save it as your Personal.

You can edit, replace or remove any tab part or add personal notes – all changes will be seen only by you.

Personal tabs can be accessed anytime from any device, even offline.
Learn more »
Give kudos to tab author, rate the tab!
1 2 3 4 5
comments
print report bad tab
2 comments total.
0 reply
wollie 51 Jun 18, 2006 10:52 AM

I think this is wrong

G|------------------------------|
D|------------------------------|x1
A|------22------22------22------|
E|-0000----0000----0000-----0-0-|


i think the E's must be C# (in the whole song)

G|------------------------------|
D|------------------------------|x1
A|-6666-22-6666-22-6666-22--6-6-|
E|------------------------------|

an other option is that he tunes his bass to Eb or plays in drop D

+1 reply
wollie 51 Jun 18, 2006 10:56 AM

i mean the E's must be D#, not C#

guest
You may want to rate the tab now too:
select rating
Wanna post a correction for this tab? Suggest correction