Oops, an error
Loading. Please wait.

My God bass

version 1
version 1

Whole song

Interactive

1,358 views 3 this week
2 commentsread comments
1 2 3 4 5
2 more votes to show rating
add to favorites
×
Save as Personal and add changes to this tab that will be seen only by you. Learn more ›
×
You can save this tab as Personal to edit and correct it or add notes. All changes will be seen only by you. Learn more »
launch autoscroll
font size
0
reset
guitar tuner
backing track
0:00
0:00
edit
Autoscroll
slow
fast
+/-
esc
set tempo
stop
No bass tab for this song yet, so I'll make one: here we go...

Intro:
G--------------------|
D--------------------| (X4)
A--------------------|
E-1-1111111-444-3333-|

Main riff:
G-------------------------|
D-------------------------|
A-----4-4-3-------1-1-3-4-|
E-1-1-------4-4-4---------|

G--------------------------|
D--------------------------|
A-----4-4-3-------4-66-4-3-|
E-1-1-------4-4-4----------|

Verse:
G----------------------|
D----------------------|
A-------443------11-34-|
E-11111-----4444-------|

G----------------------|
D----------------------|
A-------443------46643-|
E-11111-----4444-------|

Bridge:
G----------------------------------|
D----------------------------------|
A-4-4-4-4-4-4-666------------------|
E-----------------1-1-1111-1-1-111-|

G--------------------------------------------------------------|
D--------------------------------------------------------------|
A-4-44444\1-11-111-----------------4-444-44-6-666-66-----------|
E------------------1-1111/4-44-444-------------------1-1111111-|

There, that are all the parts of the song... you'll have to listen to the song to figure 
the order.
Please rate.

            
            
Suggest correction
Creating personal tab
Creating personal tab
You can edit any tab online and save it as your Personal.

You can edit, replace or remove any tab part or add personal notes – all changes will be seen only by you.

Personal tabs can be accessed anytime from any device, even offline.
Learn more »
Give kudos to tab author, rate the tab!
1 2 3 4 5
comments
print report bad tab
2 comments total.
0 reply
Dunne147 10 May 18, 2008 12:49 PM

sounds about right

0 reply
felixayotte 10 Jan 22, 2016 03:20 PM, edited at 08:41 pm

Your tab is really good but I've listened to the song and I spotted some mistakes in the intro, the main riff and the verse I corrected. Though the bridge seems fine. Thanks again for the tab!
Intro: (x4)
1 + 2 + 3 + 4 + 1 + 2 + 3 + 4 +
G|---------------|---------------|
D|---------------|---------------|
A|---------------|---------------|
E|1---1-1-1-1-1-1|1-4-4-4-4-3-3-3|

Main Riff:
1 + 2 + 3 + 4 + 1 + 2 + 3 + 4 +
G|---------------|---------------|
D|---------------|---------------|
A|----------4-4-3|------1-1-1-4-3|
E|1---1---1------|4---4----------|

1 + 2 + 3 + 4 + 1 + 2 + 3 + 4 +
G|---------------|---------------|
D|---------------|---------------|
A ----------4-4-3|------4-6-6-4-3|
E 1---1---1------|4---4----------|

1 + 2 + 3 + 4 + 1 + 2 + 3 + 4 +
G|---------------|---------------|
D|---------------|---------------|
A|----------4-4-3|------1-1-1-4-3|
E|1---1---1------|4---4----------|

1 + 2 + 3 + 4 + 1 + 2 + 3 + 4 +
G|---------------|---------------|
D|---------------|---------------|
A|---------------|---------------|
E|1---1-1-1-1-1-1|1-4-4-4-4-3-3-3|

Verse:
1 + 2 + 3 + 4 + 1 + 2 + 3 + 4 +
G|---------------|---------------|
D|---------------|---------------|
A|----------4-4-3|------1-1-1-4-3|
E|1-1-1-1-1------|4-4-4----------|

1 + 2 + 3 + 4 + 1 + 2 + 3 + 4 +
G|---------------|---------------|
D|---------------|---------------|
A ----------4-4-3|------4-6-6-4-3|
E 1-1-1-1-1------|4-4-4----------|

1 + 2 + 3 + 4 + 1 + 2 + 3 + 4 +
G|---------------|---------------|
D|---------------|---------------|
A|----------4-4-3|------1-1-1-4-3|
E|1-1-1-1-1------|4-4-4----------|

1 + 2 + 3 + 4 + 1 + 2 + 3 + 4 +
G|---------------|---------------|
D|---------------|---------------|
A|---------------|---------------|
E|1---1-1-1-1-1-1|1-4-4-4-4-3-3-3|

guest
You may want to rate the tab now too:
select rating
Wanna post a correction for this tab? Suggest correction