Oops, an error
Loading. Please wait.

My God tab

version 3
version 3

Whole song

Interactive

2,293 views 3 this week
2 commentsread comments
1 2 3 4 5
x 5
add to favorites
×
Save as Personal and add changes to this tab that will be seen only by you. Learn more ›
×
You can save this tab as Personal to edit and correct it or add notes. All changes will be seen only by you. Learn more »
launch autoscroll
font size
0
reset
how to read this tab
guitar tuner
backing track
0:00
0:00
edit
Autoscroll
slow
fast
+/-
esc
set tempo
stop
----------------------------------------------------------------------
                             My God - Pennywise
----------------------------------------------------------------------
Tabbed by: Briggz
Email:

Tuning: standard (Eadgbe)

Order:

Intro
Verse
Chorus
Post chorus
verse 
chorus
bridge
post chorus (with solo) 
chorus
chorus


Intro

e|--------------------------------------------------------------------|
B|--------------------------------------------------------------------|
G|--------------------------------------------------------------------|
D|--3----xxxxxxx-----6666--5------------------------------------------|  x 4
A|--3----xxxxxxx-----6666--5------------------------------------------|
E|--1----xxxxxxx-----4444--3------------------------------------------|


e|--------------------------------------------------------------------|
B|--------------------------------------------------------------------|
G|-------665-------333-56----------665--------6--88--65---------------|
D|--33---665--55---333-56-----33---665---55---6--88--65---------------|
A|--33---443--55---111-34-----33---443---55---4--66--43---------------|
E|--11--------33--------------11---------33---------------------------|


e|--------------------------------------------------------------------|
B|--------------------------------------------------------------------|
G|-------665-------333-56---------------------------------------------|
D|--33---665--55---333-56------3----xxxxxxx----6666--5----------------|
A|--33---443--55---111-34------3----xxxxxxx----6666--5----------------|
E|--11--------33---------------1----xxxxxxx----4444--3----------------|

Verse 

e|--------------------------------------------------------------------|
B|--------------------------------------------------------------------|
G|-------665-------333-56----------665--------6--88--65---------------|
D|--33---665--55---333-56-----33---665---55---6--88--65---------------|
A|--33---443--55---111-34-----33---443---55---4--66--43---------------|
E|--11--------33--------------11---------33---------------------------|
  p.m...................................................                 x2 

e|--------------------------------------------------------------------|
B|--------------------------------------------------------------------|
G|-------665-------333-56---------------------------------------------|
D|--33---665--55---333-56------3----xxxxxxx----6666--5----------------|
A|--33---443--55---111-34------3----xxxxxxx----6666--5----------------|
E|--11--------33---------------1----xxxxxxx----4444--3----------------|
  p.m....................

Chorus 

e|--------------------------------------------------------------------|
B|--------------------------------------------------------------------|
G|-------665-------333-56----------665--------6--88--65---------------|
D|--33---665--55---333-56-----33---665---55---6--88--65---------------|
A|--33---443--55---111-34-----33---443---55---4--66--43---------------|
E|--11--------33--------------11---------33---------------------------|
                                                                         x1

e|--------------------------------------------------------------------|
B|--------------------------------------------------------------------|
G|-------665-------333-56---------------------------------------------|
D|--33---665--55---333-56------3----xxxxxxx----6666--5----------------|
A|--33---443--55---111-34------3----xxxxxxx----6666--5----------------|
E|--11--------33---------------1----xxxxxxx----4444--3----------------|

Post Chorus

e|--------------------------------------------------------------------|
B|--------------------------------------------------------------------|
G|-------665-------333-56----------665--------6--88--65---------------|
D|--33---665--55---333-56-----33---665---55---6--88--65---------------|
A|--33---443--55---111-34-----33---443---55---4--66--43---------------|
E|--11--------33--------------11---------33---------------------------|
                                                                         x1

e|--------------------------------------------------------------------|
B|--------------------------------------------------------------------|
G|-------665-------333-56---------------------------------------------|
D|--33---665--55---333-56------3----xxxxxxx----6666--5----------------|
A|--33---443--55---111-34------3----xxxxxxx----6666--5----------------|
E|--11--------33---------------1----xxxxxxx----4444--3----------------|

Bridge

e|--------------------------------------------------------------------|
B|--------------------------------------------------------------------|
G|--666666--88---------------666666---88------------------------------|
D|--666666--88---33333333----666666---88--33333333--------------------|
A|--444444--66---33333333----444444---66--33333333--------------------|
E|---------------11111111-----------------11111111--------------------|

e|--------------------------------------------------------------------|
B|--------------------------------------------------------------------|
G|--6666--3333------------------6666-8888--5*-------------------------|
D|--6666--3333---3333---6666----6666-8888--5*- hold and let ring out--|
A|--4444--1111---3333---6666----4444-6666--3* ------------------------|
E|---------------1111---4444------------------------------------------|

Note: If anyone knows the solo, or if you have any corrections 
      please e-mail me at brycetaylor22@hotmail.com

| /  slide up
| \  slide down
| h  hammer-on
| p  pull-off
| ~  vibrato
| +  harmonic
| x  Mute note
=======================================================================

            
            
Suggest correction
Creating personal tab
Creating personal tab
You can edit any tab online and save it as your Personal.

You can edit, replace or remove any tab part or add personal notes – all changes will be seen only by you.

Personal tabs can be accessed anytime from any device, even offline.
Learn more »
comments
print report bad tab
2 comments total.
+2 reply
sTyleFree 52 Nov 01, 2006 04:35 AM

it's not a g5 but a g#5, so just play it like this
e|-------------------------------------------------------------------|
B|-------------------------------------------------------------------|
G|-------665-------333-56----------665--------6--88--65--------------|
D|--33---665--66---333-56-----33---665---66---6--88--65--------------|
A|--33---443--66---111-34-----33---443---66---4--66--43--------------|
E|--11--------44--------------11---------44--------------------------|

palm mutes in the verse are also pretty messed up

0 reply
dray92 10 Jul 26, 2015 01:00 AM

i was hoping on finding a guitar pro tab on UG, but this does it aswell - sTyleFree's correction sounds like the right way to play the song :)

guest
Wanna post a correction for this tab? Suggest correction