Oops, an error
Loading. Please wait.

All Your Sins Tab

version 1
version 1

Whole song

Interactive

3,306 views 21 this week
no commentswrite comment
1 2 3 4 5
x 3
add to favorites
launch autoscroll
font size
0
reset
how to read this tab
guitar tuner
Autoscroll
slow
fast
+/-
esc
set tempo
stop
Help us to improve Ultimate-Guitar.com Take our survey!
×
Author
Difficulty
Tuning
intermediate
B E A D F# B
Pentagram - All Your Sins

B standard

DRUM INTRO

MAIN RIFF
|-----------------------------------------------------|
|-----------------------------------------------------|
|-----------------------------------------------------| x2
|-----------------------------------------------------|
|----------------------------------------10-9--7--6---|
|-6p5-0-1--0---6p5-0-1--0---6p5-0-1--0---8--7--5--4---|

VERSE RIFF
|------------------------------------------------------|
|------------------------------------------------------|
|------------------------------------------------------| x6
|------------------------------------------------------|
|------------------------------------------------------|
|-0-0-0-0-1----0-0-0-0-4--3--0-0-0-0-1----0-3-5-6---5--|
  PM-----|     PM-----|      PM-----|

MAIN RIFF x2

VERSE RIFF x6

MAIN RIFF x2

CHORUS RIFF
|-------------------------------------------------------|
|-------------------------------------------------------|
|-------------------------------------------------------| x2
|-------------------------------------------------------|
|-11-10--9--10--12--10-------11-10--9--10--12--14-------|
|-9--8---7--8---10--8--------9--8---7--8---10--12-------|

MAIN RIFF x2

PRE-SOLO RIFF
|----------------------------------------------|
|----------------------------------------------|
|----------------------------------------------| x4
|----------------------------------------------|
|-7-7-7----7-8---------7-7-7-------------------|
|-5-5-5----5-6---------5-5-5----0-1---0-0------|

SOLO OVER VERSE RIFF x6

|---------------------------------------------|
|---------------------------------------------|
|---------------------------------------------|
|---------------------------------------------|
|-12h14-14-14-12h14h12--12h14-14-14-12h14h12--|
|---------------------------------------------|

|--------------------------------------|
|--------------------------------------|
|--------------------------------------|
|-------------12h14-12h14b16--12-14----|
|-12h14-14-14--------------------------|
|--------------------------------------|

|---------------------------------------------|
|---------------------------------------------|
|-14h16-16-16-16p14s13--14h16-16-16-16p14s13--|
|---------------------------------------------|
|---------------------------------------------|
|---------------------------------------------|

|-----------------------------------|
|-----------------------------------|
|-14h16-16-16-16p14s13--14----13----|
|-----------------------------------|
|-----------------------------------|
|-----------------------------------|

|----------------------------------------|
|----------------------------------------|
|-14-13-------------13-14-16-16b18-14-16-|
|-------16-14-16-------------------------|
|----------------------------------------|
|----------------------------------------|

|-----------------------------------------|
|-17-14-----------------------------------|
|-------16-14-16b18-14--------------------|
|----------------------16-14-16-12--------|
|-----------------------------------14----|
|-----------------------------------------|

|-----------------------------------------|
|-----------------------------------------|
|-----------------------------------------|
|-----------------------------------------|
|-12h14-14-14---------12h14-14-14---------|
|-------------12--10--------------12--10--|

|-------------------------------|
|-------------------------------|
|-------------------------------|
|-------------------------------|
|-------------------------------|
|-10-12-10-9-10--9--5-7-3--0----|

|-------------------------|
|-------------------------|
|-------------------------|
|-------------------------|
|-2-4--5--4---2-4-5-4-----|
|-------------------------|

|--------------------------|
|--------------------------|
|--------------------------|
|--------------------------|
|-2-4-5-5--4--s7-5-4-5-----|
|--------------------------|

|----------------------------|
|----------------------------|
|----------------------------|
|-9----11----12p11p12--14----|
|----------------------------|
|----------------------------|

|--------------------------------------|
|------------------------14-17-17b19---|
|-----------------14--16---------------|
|-12-14-16--14-16----------------------|
|--------------------------------------|
|--------------------------------------|

MAIN RIFF x5

|-----------------------------------------------------|
|-----------------------------------------------------|
|-----------------------------------------------------| 
|-----------------------------------------------------|
|----------------------------------------10-9--7--6---|
|-6p5-0-1--0---6p5-0-1--0---6p5-0-1--0---8--7--5--4---|

|------------|
|------------|
|------------|
|------------|
|-9-9--------|
|-7-7--------|
Suggest correction
Give kudos to tab author, rate the tab!
1 2 3 4 5
comments
print report bad tab
guest
You may want to rate the tab now too:
select rating
Wanna post a correction for this tab? Suggest correction