Oops, an error
Loading. Please wait.

Be Forewarned bass

103 views 1 this week
no commentswrite comment
1 2 3 4 5
2 more votes to show rating
add to favorites
×
Save as Personal and add changes to this tab that will be seen only by you. Learn more ›
×
You can save this tab as Personal to edit and correct it or add notes. All changes will be seen only by you. Learn more »
launch autoscroll
font size
0
reset
guitar tuner
edit
Autoscroll
slow
fast
+/-
esc
set tempo
stop
Author
Difficulty
About this tab version
This is a rough outline. All numbers grouped together without spaces should be read as single digit numbers (111 is 1-1-1 and 222 is 2-2-2)). There's a bass solo underneath the guitar solo, but substituted a basic two note rhythm instead. This tab is based off the vintage collection version. Was this info helpful? Yes No
[Intro] 
(0:00)

[Bass enters] 
(0:27)
G|------------------|------------------|------------------|------------------|
D|------------------|------------------|------------------|------------------|
A|------------------|------------------|------------------|------------------|
E|-5--5555-5--5555--|-6--6666-6--6666--|-7--7777-7--7777--|-6--6666-6--6666--|  (x2)

[Verse 1] 
(0:48)
G|------------------|------------------|------------------|------------------|
D|------------------|------------------|-777-666-555-666--|-777-666-555-666--|
A|-9-9-9-9-9-9-9-9-9|-9-9-9-9-9-9-9-9-9|------------------|------------------|
E|------------------|------------------|------------------|------------------|  (x2)

[Chorus 1] 
(1:10)
G|------------------|------------------|------------------|------------------|
D|------------------|------------------|-777-666-555-666--|-777-666-555-666--|
A|-7---7-9---9------|-7---7-9---9------|------------------|------------------|
E|-------------7---7|-------------5---5|------------------|------------------|

[Verse 2] 
(1:23)
G|------------------|------------------|------------------|------------------|
D|------------------|------------------|-777-666-555-666--|-777-666-555-666--|
A|-9-9-9-9-9-9-9-9-9|-9-9-9-9-9-9-9-9-9|------------------|------------------|
E|------------------|------------------|------------------|------------------|  (x2)

[Chorus] 
(1:45)
G|------------------|------------------|------------------|------------------|
D|------------------|------------------|-777-666-555-666--|-777-666-555-666--|
A|-7---7-9---9------|-7---7-9---9------|------------------|------------------|
E|-------------7---7|-------------5---5|------------------|------------------|

[Bridge] 
(1:58)
G|---------222-777--|-----666-333-222--|-000-222-333------|---------222-777--| 
D|-000-333----------|-333--------------|-------------111--|-000-333----------|
A|------------------|------------------|------------------|------------------| 
E|------------------|------------------|------------------|------------------|  (x4)

[Guitar Solo] 
(2:42)
G|------------------|------------------|------------------|------------------|
D|------------------|------------------|------------------|------------------|
A|-2---2--2-4---4--4|-2---2--2-4---4--4|-2---2--2-4---4--4|-2---2--2-4---4--4|
E|------------------|------------------|------------------|------------------|  (x2)

[Chorus] 
(3:03)
G|------------------|------------------|------------------|------------------|
D|------------------|------------------|-777-666-555-666--|-777-666-555-666--|
A|-7---7-9---9------|-7---7-9---9------|------------------|------------------|
E|-------------7---7|-------------5---5|------------------|------------------|

[Outro] 
(3:16)
G|------------------|------------------|------------------|------------------|
D|------------------|------------------|------------------|------------------|
A|------------------|------------------|------------------|------------------|
E|-5----5-5-6----6-6|-8----6-8-6----5-6|-5--5-------------|------------------|
Suggest correction
Creating personal tab
Creating personal tab
You can edit any tab online and save it as your Personal.

You can edit, replace or remove any tab part or add personal notes – all changes will be seen only by you.

Personal tabs can be accessed anytime from any device, even offline.
Learn more »
Give kudos to tab author, rate the tab!
1 2 3 4 5
comments
print report bad tab
guest
You may want to rate the tab now too:
select rating
Wanna post a correction for this tab? Suggest correction