Oops, an error
Loading. Please wait.

Be Forewarned Ukulele Chords

28 views 9 this week
no commentswrite comment
1 2 3 4 5
3 more votes to show rating
add to favorites
launch autoscroll
font size
0
reset
transpose
0
reset
simplify chords
display chords
guitar tuner
Autoscroll
slow
fast
+/-
esc
set tempo
stop
Help us to improve Ultimate-Guitar.com Take our survey!
×
Author
Difficulty
intermediate
About this tab version
Added Chords over lyrics and corrected a bunch of typos. moved tabs to top and chords to bottom. Was this info helpful? Yes No
Pentagram - Be forewarned 
Ukulele tab by Tor Erik Grønås
tor.erik.1982@gmail.com

[Intro Riff]

        C#m (x8)
A|------4-----4-----4-----4-----4-----4-----4-----4--|
E|----4-----4-----4-----4-----4-----4-----4-----4----|
C|--4-----4-----4-----4-----4-----4-----4-----4------|
G|---------------------------------------------------|


[Prelude Riff]

"as I awake                     in the darkness         
        C#m (x4)                A (x4)
A|------4-----4------4-----4-----4----4-----4----4---|
E|----4-----4-----4------4-----5----5-----5----5-----|
C|--4-----4-----4------4-----4----4-----4----4-------|
G|---------------------------------------------------|
                                                     | 
"and I look around              there is no sound    |(x2)
        A#m (x4)                  A (x4)             | 
A|------1-----1------1-----1-----0----0-----0----0---|
E|----1-----1-----1------1-----0----0-----0----0-----|
C|--1-----1-----1------1-----1----1-----1----0-------|
G|---------------------------------------------------|


[Verse part 1]  
(listen for rhythm, I tried to type it)
 
"I'm alone now...
       
   C#m  (x4)      A#m (x2)      C#m (x2)            
A|--4---4-4-4---4---4---4---4-4-4---4---4---|
E|--4---4-4-4---4---4---4---4-4-4---4---4---|
C|--4---4-4-4---4---4---4---4-4-4---4---4---|
G|--6---6-6-6---6---6---6---6-6-6---6---6---|

A|--4---4-4-4---4---4---4---4-4-4---4---4---|
E|--4---4-4-4---4---4---4---4-4-4---4---4---|
C|--4---4-4-4---4---4---4---4-4-4---4---4---|
G|--6---6-6-6---6---6---6---6-6-6---6---6---|

A|--1---1-1-1---1---1---1---1-1-1---1---1---|
E|--1---1-1-1---1---1---1---1-1-1---1---1---|
C|--1---1-1-1---1---1---1---1-1-1---1---1---|
G|--3---3-3-3---3---3---3---3-3-3---3---3---|

A|--4---4-4-4---4---4---4---4-4-4---4---4---|
E|--4---4-4-4---4---4---4---4-4-4---4---4---|
C|--4---4-4-4---4---4---4---4-4-4---4---4---|
G|--6---6-6-6---6---6---6---6-6-6---6---6---|


[Verse Part 2]

(x4) whole note F# that rings with vibrato 
i'll list some variations of F#: 
"I've lived on the dark side of the moon..

   F#            F#           F#
A|--1-------------4------------9----------|
E|--2-------------6------------9----------|
C|--1-------------6------------10---------|
G|--3-------------6------------11---------|

And end with this down stroke riff 

   C#m   D#13  C#m   D#13  C#m   D#13  C#m   D#13
A|-4-4-4-3-3-3-4-4-4-3-3-3-4-4-4-3-3-3-4-4-4-3-3-3--|
E|-4-4-4-3-3-3-4-4-4-3-3-3-4-4-4-3-3-3-4-4-4-3-3-3--|
C|-4-4-4-3-3-3-4-4-4-3-3-3-4-4-4-3-3-3-4-4-4-3-3-3--|
G|-6-6-6-6-6-6-6-6-6-6-6-6-6-6-6-6-6-6-6-6-6-6-6-6--|


[Chorus] 
(Chords/Riff)

D DUDUD D DUDUD strumming i think 

"So you been forewarned..

        E       F#      B       E       F#      A       
A|------2-------1-------2-------4-------4-------4----------|
E|------4-------2-------2-------4-------6-------5----------|
C|------4-------1-------3-------4-------6-------4----------|
G|------4-------3-------4-------6-------6-------6----------|
end of chorus: downstroke this (same as end of verse)

        C#m   D#13  C#m   D#13  C#m   D#13  C#m   D#13
A|------4-4-4-3-3-3-4-4-4-3-3-3-4-4-4-3-3-3-4-4-4-3-3-3--|
E|------4-4-4-3-3-3-4-4-4-3-3-3-4-4-4-3-3-3-4-4-4-3-3-3--|
C|------4-4-4-3-3-3-4-4-4-3-3-3-4-4-4-3-3-3-4-4-4-3-3-3--|
G|------6-6-6-6-6-6-6-6-6-6-6-6-6-6-6-6-6-6-6-6-6-6-6-6--|

That's all the parts except the solo 
which i'm not even gonna try to type up..


C#m
As I wake 
A
In the darkness 
A#m
And I look around 
A
There is no sound
C#
It's so tranquil
A
It's so calm like you
A#m
But now I hear a noise
A
Is there any way to out of this nightmare?
C#m
Baby, I'm alone now
C#m
And you're laughing at me
A#m
But I take life
C#m
In a way that you could never see
C#m
So if you're leaving
C#m
You better let me know
A#m
'Cause I've already started my plan
C#m
And I'm never gonna let you go
F#
I've lived on the dark side of the moon
C#m D#13 C#m D#13 C#m D#13 C#m D#13
And I've been to the heart of the sun
F#
I've had my time with many ladies
F#
And I've killed many men
C#m D#13 C#m D#13 C#m D#13 C#m D#13
Before my sixteenth year was done
          E        F#
So you've been forewarned
          B            E
cause i'm coming after you
        F#      A     
When I catch up Lord I'ma never let you go
C#m D#13 C#m D#13 C#m D#13 C#m D#13
I'll never let you go, no
F#
Some people think I'm an advocate of Lucifer
C#m D#13 C#m D#13 C#m D#13 C#m D#13
And some say I'm a child of god, yes they do
F#
Some people think I've got the nine lives of a cat
C#m D#13 C#m D#13 C#m D#13 C#m D#13
And others say I'm filthy as a dog a wretched dog
          E        F#
So you've been forewarned
          B            E
cause i'm coming after you
        F#      A     
When I catch up Lord I'ma never let you go
C#m D#13 C#m D#13 C#m D#13 C#m D#13
I'll never let you go, no

[Solo]


          E        F#
So you've been forewarned
          B            E
cause i'm coming after you
        F#      A     
When I catch up Lord I'ma never let you go
C#m D#13 C#m D#13 C#m D#13 C#m D#13
I'll never let you go, no
Suggest correction
Give kudos to tab author, rate the tab!
1 2 3 4 5
comments
print report bad tab
guest
You may want to rate the tab now too:
select rating
Wanna post a correction for this tab? Suggest correction