Oops, an error
Loading. Please wait.

Cant Sleep Love intro tab

1,099 views 6 this week
1 commentread comment
1 2 3 4 5
x 3
add to favorites
×
Save as Personal and add changes to this tab that will be seen only by you. Learn more ›
×
You can save this tab as Personal to edit and correct it or add notes. All changes will be seen only by you. Learn more »
launch autoscroll
font size
0
reset
how to read this tab
guitar tuner
edit
Autoscroll
slow
fast
+/-
esc
set tempo
stop
Author
Difficulty
-------------------------------------------------------------------------------
                             CAN'T SLEEP LOVE - Pentatonix
-------------------------------------------------------------------------------

Tuning: EADGBe (standard)

e|---------------------------------------------------------------------------|
B|---------------------------------------------------------------------------|
G|---------0-----------------------------------------------------------------|
D|-----------4-2-------------------------------------------------------------|
A|-----0-2-------2-----------------------------------------------------------|
E|---3-----------------------------------------------------------------------|

I'll normally play this as an intro then through the verse, timing it with the words. I mute on the last pluck 
for the Uh huhs and yeahs. It works pretty well for me but if you   see a more accurate/easier way, I'm cool 
with changing it.

            
            
Suggest correction
Creating personal tab
Creating personal tab
You can edit any tab online and save it as your Personal.

You can edit, replace or remove any tab part or add personal notes – all changes will be seen only by you.

Personal tabs can be accessed anytime from any device, even offline.
Learn more »
Give kudos to tab author, rate the tab!
1 2 3 4 5
comments
print report bad tab
1 comment total.
0 reply
larissaandreamateo 10 Jan 28, 2017 07:42 AM

Heyy thanks for this, it works well btw :3

guest
You may want to rate the tab now too:
select rating
Wanna post a correction for this tab? Suggest correction