Oops, an error
Loading. Please wait.

Suite For Beaver Pt 1 Bass Tab

10 views 1 this week
no commentswrite comment
1 2 3 4 5
3 more votes to show rating
add to favorites
launch autoscroll
font size
0
reset
guitar tuner
Autoscroll
slow
fast
+/-
esc
set tempo
stop
Help us to improve Ultimate-Guitar.com Take our survey!
×
Author
Difficulty
intermediate
Hey folks, i absolutely love this track and couldn't find a tab anywhere so thought screw it I'll give it a
shot. Should be fairly accurate but let me know if i missed something


[main riff] X 7

G|------------------------------------------8--------------------------------|
D|---8--------6---------------------------8----------------------------------|
A|------6/8-------8--(6)6--8------6/8--6-------8-----------------------------|
E|---------------------------6-----------------------------------------------|

[alternate riff] X 1

G|-------------------------------------------------8-------------------------|
D|---8-------6--------------------8--------------8---------------------------|
A|------6/8------8---(6)6--8----8--------8----6------6--8--------------------|
E|----------------------------6-----6--6---6---------------------------------|

[Verse 1] X 5

G|------------------------------------------8--------------------------------|
D|---8--------6---------------------------8----------------------------------|
A|------6/8-------8--(6)6--8------6/8--6-------8-----------------------------|
E|---------------------------6-----------------------------------------------|

G|-------------------------------------------------8-------------------------|
D|---8-------6--------------------8--------------8---------------------------|
A|------6/8------8---(6)6--8----8--------8----6------6--8--------------------|
E|----------------------------6-----6--6---6---------------------------------|

[Bridge] The timing on this is a bit tricky so listen to it a bunch. Do it 8 times.

G|---------------------------------------------------------------------------|
D|---------------------------8/10-----10-------------------------------------|
A|---8---8-8----8---------10-------10-----10---------------------------------|
E|-----8------8----6/8-8---------------------8-------------------------------|

[Fill part} x 4

G|------------------------------------------8--------------------------------|
D|---8--------6---------------------------8----------------------------------|
A|------6/8-------8--(6)6--8------6/8--6-------8-----------------------------|
E|---------------------------6-----------------------------------------------|

{Verse 2} X 4

G|------------------------------------------8--------------------------------|
D|---8--------6---------------------------8----------------------------------|
A|------6/8-------8--(6)6--8------6/8--6-------8-----------------------------|
E|---------------------------6-----------------------------------------------|

G|-------------------------------------------------8-------------------------|
D|---8-------6--------------------8--------------8---------------------------|
A|------6/8------8---(6)6--8----8--------8----6------6--8--------------------|
E|----------------------------6-----6--6---6---------------------------------|


That's it!

************************************

| (n) Ghost note
| /   Slide up

************************************
Suggest correction
Give kudos to tab author, rate the tab!
1 2 3 4 5
comments
print report bad tab
guest
You may want to rate the tab now too:
select rating
Wanna post a correction for this tab? Suggest correction