Oops, an error
Loading. Please wait.

Crecer tab

version 1
version 1

Whole song

18 views 6 this week
no commentswrite comment
1 2 3 4 5
3 more votes to show rating
add to favorites
×
Save as Personal and add changes to this tab that will be seen only by you. Learn more ›
×
You can save this tab as Personal to edit and correct it or add notes. All changes will be seen only by you. Learn more »
launch autoscroll
font size
0
reset
how to read this tab
guitar tuner
edit
Autoscroll
slow
fast
+/-
esc
set tempo
stop
Este es el intro que en la transcripcion anterior no aparecia

****= palm mute
x = scratch (poner el dedo encima de la cuerda sin presionar)


e]---------------------------------------------------|
B]---------------------------------------------------|
G]---------------------------------------------------|
D]----------2-2-2--3-3-3--5-5-5--0-3-0-2---0---------|
A]---3-3-3-------------------------------------------|
E]---------------------------------------------------|
     ****************************************

e]---------------------------------------------------|
B]---------------------------------------------------|
G]---------------------------------------------------|
D]---------------------------------------------------|
A]----------2-2-2--3-3-3--5-5-5--0-3-0-2---0---------|
E]---3-3-3-------------------------------------------|
    ******************************************


e]---------------------------------------------------|
B]---------------------------------------------------|
G]---------------------------------------999-777-----|
D]---------------------------------------999-777-----|
A]-------0-3-3--0--6-6--0--5-5--0--3-----777-555-----|
E]--1-1----------------------------------------------|
    *****************************


aka hay algunas cosas q escuche, y las probre y suenan bn


en la parte 'es crecer, es crecer'

e]--------------------------------|
B]--------------------------------|
G]---10-10-10---9-9-9-------------|
D]----x--x--x---x-x-x-------------|
A]----8--8--8---7-7-7-------------|
E]--------------------------------|


                      (1)     (2)   (3)
en la parte 'q mis problemas estan bien'

     (1)(2)(3)
e]-------------------------------------|
B]-------------------------------------|
G]---10--9--7--------------------------|
D]---10--9--7-----5--------------------|
A]----8--7--5-----5--------------------|
E]----------------3--------------------|
                  ...q son solo una etapa mas


en la parte 'mil veces tu te caeras'

e]--------------------------------------------------|
B]--------------------------------------------------|
G]--9-9-9--10-10-10----17-17-16-16/-17-17\-16/-17---|
D]--9-9-9--10-10-10----17-17-16-16/-15-15\-16/-17---|
A]--7-7-7---8--8--8----15-15-14-14/-15-15\-14/-15---|
E]--------------------------------------------------|


'Sera el momento...'----- 'Para actuar y acerlo too bem
e]------------------------------------------------|
B]------------------------------------------------|
G]--10-10----9-9-------------9-9-9-9--------------|
D]--10-10----9-9-------------x-x-x-x--------------|
A]---8--8----7-7-------------7-7-7-7--------------|
E]------------------------------------------------|


ok eso es too la mayoria de las partes son de la segunda
guitarra todos los acordes son referencias sola% ahi tu las
tokas de acuerdo a como te acomode mejor (strum times)
y na poh noc si enrealidad la toka la 1 o 2º guitarra nunk
los e visto tokar en vivo a PeN, eso es too!

            
            
Suggest correction
Creating personal tab
Creating personal tab
You can edit any tab online and save it as your Personal.

You can edit, replace or remove any tab part or add personal notes – all changes will be seen only by you.

Personal tabs can be accessed anytime from any device, even offline.
Learn more »
Give kudos to tab author, rate the tab!
1 2 3 4 5
comments
print report bad tab
guest
Wanna post a correction for this tab? Suggest correction