Oops, an error
Loading. Please wait.

Crecer tab

version 2
version 2

Whole song

16 views 1 this week
no commentswrite comment
1 2 3 4 5
3 more votes to show rating
add to favorites
×
Save as Personal and add changes to this tab that will be seen only by you. Learn more ›
×
You can save this tab as Personal to edit and correct it or add notes. All changes will be seen only by you. Learn more »
launch autoscroll
font size
0
reset
how to read this tab
guitar tuner
edit
Autoscroll
slow
fast
+/-
esc
set tempo
stop
esta es una de mis canciones preferidas de pen ojalas q les guste ahi va!

INTRO (x2)se toca con pal mute
e-------------------------------------------
B-------------------------------------------
G-------------------------------------------
D--------2-----3-----5-----3-3-2-2----------
A--3-3-3---3-3---3-3---3-3--(3)-------------
E-------------------------------------------


e--------------------------------------------------------------
B--------------------------------------------------------------
G--------------------------------------------------------------
D---------------------------------------------3----------------
A-------2---2-3-3-3-5-5-5-3-3-2-0-------3-----------3----------
E-3-3-3---3-----------------------1-1-1---1-1---1-1-----1-1-1--

e--------------     e------------
b--------------     b------------
g--8---7-------     g------------
d--8---7-------     d--7--5------
a--6---5-------     a--7--5-------
E--------------     E--5--3-------

verso:

Que me dices si te pido, si te pido que me expliques?
SOL
por que me siento asi esta vez, por que me siento asi otra vez?
FA                             LA                          SOL
que no no quiero darme cuenta que esto es lo que llaman crecer!!
DO
Que no quiero darme cuenta que, que mis problemas estan bien,
SOL
que son solo una etapa mas, solo una valla que pasar,
FA                     LA                        SOL
despues de todo esta es mi vida y hago lo que debo hacer!! Es crecer, es crecer!!
LA                 FA                     DO                         SOL
Mil veces tu te caeras, mil una te levantaras, seras mas fuerte si!, no miraras atras,
FA                   LA                           FA                       SOL
sera el momento para actuar y hacerlo todo bien, sera el momento que esperaste para hacerte respetar.

se repite igual q en la primera       e--------------
 parte:                               B--------------
                                      g--8---7--------
                                      d--8---7--------
                                      a--6---5--------
                                      E---------------


Se que siempre es muy dificil, entender que tenemos que vivir, las cosas malas si!,,
todo no es como quisieramos...
Date cuenta que es muy tarde para empezar a llorar ahora. Es crecer, es crecer!!
Mil veces tu te caeras, mil una te levantaras, seras mas fuerte si!, no miraras atras,
sera el momento para actuar y hacerlo todo bien, sera el momento que esperaste para hacerte respetar

ahi esta no es dificil solo hay q practicarla para cualquier consulta consultar a fabi_andres@
Suggest correction
Creating personal tab
Creating personal tab
You can edit any tab online and save it as your Personal.

You can edit, replace or remove any tab part or add personal notes – all changes will be seen only by you.

Personal tabs can be accessed anytime from any device, even offline.
Learn more »
Give kudos to tab author, rate the tab!
1 2 3 4 5
comments
print report bad tab
guest
Wanna post a correction for this tab? Suggest correction