Oops, an error
Loading. Please wait.

Quien Soy Yo tab

61 views 3 this week
no commentswrite comment
1 2 3 4 5
3 more votes to show rating
add to favorites
×
Save as Personal and add changes to this tab that will be seen only by you. Learn more ›
×
You can save this tab as Personal to edit and correct it or add notes. All changes will be seen only by you. Learn more »
launch autoscroll
font size
0
reset
how to read this tab
guitar tuner
edit
Autoscroll
slow
fast
+/-
esc
set tempo
stop
Intro


              Am (reverse)?
e--12---12---12---12---12---12---12---12-|
B----------------------------------------|
G----------------------------------------|   Continuar Hasta el
D----------------------------------------|     primer verso?
A----------------------------------------|
E----------------------------------------|


 0:15    Am    F                Am      F
e--------------------------------------------|
B-----------1-------------------------1------|
G--------2-------------------------2---------| Se repite a lo largo
D--------------3------------------------3----|  de toda la canción?
A-----0-------------------------0------------|
E--------------------------------------------|


0:34  Am?
e----------------------------------------|
B----------------------------------------|
G-9h10p9---------------------------------|
D----------------------------------------|
A----------------------------------------|
E----------------------------------------|


Verso 1
F?
            Am         F           Am        F
Soy quien te habla de amor en cada esquina
        Am    F      Am      F
Soy un fanático un suicida
        Am    F      Am      F
Soy la lluvia en la herida
        Am        F
Quien soy yo


        Am     F       Am      F
Soy el mar mojando tus pies
       Am    F       Am      F
Soy el trago, en tu mano
       Am    F       Am      F
la foto añeja de tu pasado
          Am    F       Am      F
quien soy yo?


[1:30, 2:20]

e-----------------------------------|
B-----12-h13----12-h13----12-h13----|
G-----------------------------------|
D-----------------------------------|
A-----------------------------------|
E-----------------------------------|


      Am   F       Am     F
Soy la risa desdentada
      Am   F       Am     F
Soy el arma soy la bala
      Am   F        Am    F
Soy el puñal en tu espalda
          Am      F    Am    F
Quien soy yo


         Am   F      Am     F
Soy un profeta una mentira
             Am    F             Am    F
Soy quien te piensa y luego se olvida
       Am   F            Am      F
Soy la tumba llena de espinas
       Am   F            Am      F
La otra cara la luz perdida
          Am    F       Am       F
Quien soy yo


[Distorsión]
F?
                Am     F         Am      F
Soy quien se acuesta junto a tu cuerpo
          Am    F         Am      F
Soy quien roba todos tus sueños
          Am    F       Am       F
Soy la sangre en tus rodillas
          Am    F     Am        F
La procesión, la pesadilla
          Am    F
Quien soy yo?        X4


[3:30, 3:54]
e---8---10----12----10------8----10---12---10-----|
B---10--12----13----12------10---12---13---12-----|
G-------------------------------------------------|
D-------------------------------------------------|
A-------------------------------------------------|
E-------------------------------------------------|

[Fin]


Excelente canción de Pepe Calavera espero que la disfruten
Cualquier pregunta u observación a:   munoz_pma@   :)
Suggest correction
Creating personal tab
Creating personal tab
You can edit any tab online and save it as your Personal.

You can edit, replace or remove any tab part or add personal notes – all changes will be seen only by you.

Personal tabs can be accessed anytime from any device, even offline.
Learn more »
Give kudos to tab author, rate the tab!
1 2 3 4 5
comments
print report bad tab
guest
Wanna post a correction for this tab? Suggest correction