Oops, an error
Loading. Please wait.

Big Mistake chords

by Pepper
73 views 3 this week
no commentswrite comment
1 2 3 4 5
2 more votes to show rating
add to favorites
×
Save as Personal and add changes to this tab that will be seen only by you. Learn more ›
×
You can save this tab as Personal to edit and correct it or add notes. All changes will be seen only by you. Learn more »
launch autoscroll
font size
0
reset
transpose
0
reset
display chords
guitar tuner
edit
Autoscroll
slow
fast
+/-
esc
set tempo
stop
Strumming
There is no strumming pattern for this song yet. and get +5 IQ
[Chords Used]
    C     F     Am
e|--8------------5-------|
B|--8-----10-----5-------|
G|--9-----10-----5-------|
D|--10----10-----7-------|
A|--10----8------7-------|
E|--8------------5-------|


[Intro]

C  
Let's make a big mistake
                       F 
And believe what I'm saying
            
Cause these feelings here won't shake
                                Am
And your mind will be playing tricks on you
       F
Don't believe, don't believe all the rules

[Verse]

C               
I got a feeling that you were right
C                
You're holding up your life, I know your
C
Time is chasing, the clock is racing
C                
It's all coming after you and I say
C

[Chorus]
   C            F
Let's make a big mistake
  C                  Am            
And believe what I'm saying
  C                 F 
Cause these feelings here won't shake
      C                  Am         C          F
And your mind will be playing tricks on you
       C               Am       C       F      C   Am
Don't believe, don't believe all the rules

[Instrumental]

C F C Am

[Verse]

C
Now is it worth its weight in gold
C  
Or should we melt it down to be sold?
C
You're always giving up
C
No one ever needs to know your
C
Hoping that I'm wrong this time for sure

[Chorus]

   C            F
Let's make a big mistake
  C                  Am            
And believe what I'm saying
  C                 F 
Cause these feelings here won't shake
      C                  Am         C          F
And your mind will be playing tricks on you
       C               Am       C       F      C   Am
Don't believe, don't believe all the rules yeah

[Instrumental]
C F C Am C F C Am

[Solo]
e|-----------------------------------------------|
B|-----------------------------------------------|
G|------------12---------------------------------|
D|--10--12/14----14~-14-12-10--------------------|
A|----------------------------12~-10-8~----------|
E|-----------------------------------------------|

e|------------------------------------------8~----------------------------|
B|--------------13-13/10-13/8-13/10--8h10p8-------------------------------|
G|--------------12-12/9--12/7-12/9----------------------------------------|
D|--10-12/14~----------------------------------7-10-12-10h12-14-12-10-----|
A|--------------------------------------------------------------------12--|
E|------------------------------------------------------------------------|

[Chorus]

   C            F
Let's make a big mistake
  C                  Am            
And believe what I'm saying
  C                 F 
Cause these feelings here won't shake
      C                  Am         C          F
And your mind will be playing tricks on you
       C               Am       C       F      C   Am
Don't believe, don't believe all the rules yeah
   C           F
Let's make a big mistake
  C           Am
Let's make a big mistake
 C                  F
Let's make a big mistake
C                   Am
Let's make a big mistake
 C        F       C       Am

            
            
Suggest correction
Creating personal tab
Creating personal tab
You can edit any tab online and save it as your Personal.

You can edit, replace or remove any tab part or add personal notes – all changes will be seen only by you.

Personal tabs can be accessed anytime from any device, even offline.
Learn more »
Give kudos to tab author, rate the tab!
1 2 3 4 5
comments
print report bad tab
guest
You may want to rate the tab now too:
select rating
Wanna post a correction for this tab? Suggest correction