Oops, an error
Loading. Please wait.

Give It Up Dirty Hot Sex Song Tab

4,066 views 3 this week
4 commentsread comments
1 2 3 4 5
2 more votes to show rating
add to favorites
launch autoscroll
font size
0
reset
how to read this tab
guitar tuner
Autoscroll
slow
fast
+/-
esc
set tempo
stop
Help us to improve Ultimate-Guitar.com Take our survey!
×
Pepper kicks major fucking Ass...
Really Easy Song.... Standard Tuning....
Intro & Verse Chords- E, B, A
E--------------------------|* During the verse, palm mute
B-(9)-(4)--(2)-------------|  the chords, especially on the A.
G--9---4----2--------------|
D--9---4----2--------------|
A--7---2----0--------------|
E--------------------------|

Pre-chorus/Chorus chords- G, B, A,
E-----------------| *During the Chorus, feel free  to use
B-----------------|  upstrokes on the chords to give it
G-(4)---(8)--(6)--|  a ska feel if ya like.
D--5-----9----7---|
A--5-----9----7---|
E--3-----7----5---|

"Why'd ya have to sleep with my Dad?" part-
E--7--(7)--(5)---|
B--8---7----5----|
G--9---7----5----|
D-(9)--9----7----|
A-----(9)--(7)---|
E----------------|

Back to the Chorus... end on the chords E, B, A (...please me...)
Have fun......
Suggest correction
Give kudos to tab author, rate the tab!
1 2 3 4 5
comments
print report bad tab
4 comments total. Showing first comments.
0 reply
bigEsmalls 10 May 22, 2006 03:12 PM

its a good tab but the only problem is u dont say how many times to play each part it make's it easyer on ppl like me to play the song if u the tabber put things like that in cause now i get to listen to the song and figer that shit out thank you

0 reply
brucejr.007 31 Jul 24, 2006 05:09 PM

begining .........

-------------------
-------------------
--------------------
-8-------------------
-7------------------- do u agre

-------8--7-----------

0 reply
brucejr.007 31 Jul 24, 2006 05:09 PM

i mean 8 and 6 lol

guest
You may want to rate the tab now too:
select rating
Wanna post a correction for this tab? Suggest correction