Oops, an error
Loading. Please wait.

Reckless chords

by Pepper
46 views 3 this week
no commentswrite comment
1 2 3 4 5
3 more votes to show rating
add to favorites
×
Save as Personal and add changes to this tab that will be seen only by you. Learn more ›
×
You can save this tab as Personal to edit and correct it or add notes. All changes will be seen only by you. Learn more »
launch autoscroll
font size
0
reset
transpose
0
reset
display chords
guitar tuner
edit
Autoscroll
slow
fast
+/-
esc
set tempo
stop
Strumming
There is no strumming pattern for this song yet. and get +5 IQ
[Chords]
      Gm     D#     F     Gm
e|----3-------------------10-----------|
B|----3------8------10----11-----------|
G|----3------8------10----12-----------|
D|----5------8------10----12-----------|
A|----5------6------8-----10-----------|
E|----3--------------------------------|

[Intro]
e|---------------------------------------------------|
B|-------3-------------------------3----6--6--8--3---|
G|-----3---3-------3-5-3---------3------5--5--7--3---|
D|-3/5-------5-3-5-------5---3/5---------------------|
A|---------------------------------------------------|
E|---------------------------------------------------|

[Verse] 
Gm               Gm                    Gm              D#            F 
Shining lights through the glass door done so much and I still want more
Gm                 Gm                     Gm                   D#         F
Awake and restless no signs to stop here comes the night and my blood is hot
Gm                  Gm                    Gm               D#              F
It's that original sin your looking for that unpredictable life and you want more
Gm                  Gm                   Gm                 D#            F
Up the bar take it way too far  because tonight I'm going to lose control hey
  Gm                          D# 
Read between the lines cause baby it ain't hard to find

[Chorus] 
Gm                        F      Gm                     F          Gm
Tonight you know I'm a reckless one looking for some reckless fun yeah
Gm                         F      Gm                                   F      Gm
I want something that I shouldn't touch and I want something that I want too much oh

[Instrumental]
e|---------------------------------------------------|
B|-------3-------------------------------------------|
G|-----3---3-------3---------------------------------|
D|-3/5-------5-3-5---3/5-----------------------------|
A|---------------------------------------------------|
E|---------------------------------------------------|

[Verse]
Gm                   Gm                Gm                          D#              F                
The sound of danger punching my chest sleep when I'm dead so theres no need to rest
Gm                  Gm              Gm                   D#              F
It's irresistible always wanting more that unbelievable sex on the top floor
  Gm                               D# 
Read between the lines cause that's where you can always find

[Chorus]
Gm                        F      Gm                     F          Gm
Tonight you know I'm a reckless one looking for some reckless fun yeah
Gm                         F      Gm                                   F      Gm
I want something that I shouldn't touch and I want something that I want too much oh
Gm                        F      Gm                     F          Gm
Tonight you know I'm a reckless one looking for some reckless fun yeah
Gm                         F      Gm                                   F      Gm
I want something that I shouldn't touch and I want something that I want too much oh

[Bridge]
e|---------------------------------------------------|
B|-------3-------------------------3----6--6--8--3---|
G|-----3---3-------3-5-3---------3------5--5--7--3---|
D|-3/5-------5-3-5-------5---3/5---------------------|
A|---------------------------------------------------|
E|---------------------------------------------------|

[Chorus]
Gm                        F      Gm                     F          Gm
Tonight you know I'm a reckless one looking for some reckless fun yeah
Gm                         F      Gm                                   F      Gm
I want something that I shouldn't touch and I want something that I want too much oh

Gm                        F      Gm                     F          Gm
Tonight you know I'm a reckless one looking for some reckless fun yeah
Gm                         F      Gm                                   F      Gm
I want something that I shouldn't touch and I want something that I want too much oh
Gm                 F      Gm                       F           Gm
You know  I'm a  reckless  one looking  for some  reckless  fun yeah 
Gm                       F     Gm                 F      Gm                 F    Gm                
I want something that I, I want something That I, I want something That I shouldn't touch
Gm                       F      Gm               F      Gm          F F Gm          
Tonight I want something that I, I want something that I shouldn't touch

************************************

| /  Slide up

************************************

            
            
Suggest correction
Creating personal tab
Creating personal tab
You can edit any tab online and save it as your Personal.

You can edit, replace or remove any tab part or add personal notes – all changes will be seen only by you.

Personal tabs can be accessed anytime from any device, even offline.
Learn more »
Give kudos to tab author, rate the tab!
1 2 3 4 5
comments
print report bad tab
guest
You may want to rate the tab now too:
select rating
Wanna post a correction for this tab? Suggest correction