Oops, an error
Loading. Please wait.

Stone Love bass

version 2
version 2

Whole song

Interactive

by Pepper
2,300 views 1 this week
no commentswrite comment
1 2 3 4 5
3 more votes to show rating
add to favorites
×
Save as Personal and add changes to this tab that will be seen only by you. Learn more ›
×
You can save this tab as Personal to edit and correct it or add notes. All changes will be seen only by you. Learn more »
launch autoscroll
font size
0
reset
guitar tuner
edit
Autoscroll
slow
fast
+/-
esc
set tempo
stop
Author
'Stone Love'
As heard on album; Kona Town (2002)
Words & Music; Kaleo Wassman, Bret Bollinger & Yesod Williams
Tabbed & Arranged; Michael Hoel (mikehoel-gdae@hotmail.com)

To properly match recording, tune Bass to "Standard" tuning;
  1st String = G
  2nd String = D
  3rd String = A
  4th String = E

Moderately Slow; 93/bpm.

I. Introduction [0:00]
(Play Bars 1-3, Three Times)
(Play Bars 13-16, Twice)
  
1|------------|---------|---------|
 |------------|---------|---------|
 |4----4-6-7\3|---------|---------|
 |---4--------|0-2/4-R-4|R-R-7-4-7|
  E. S E E Q Q E E E E H H E E E E

10|------------|---------|---|
  |------------|---------|---|
  |4----4-6-7\3|---------|---|
  |---4--------|0-2/4-R-4|(R)|

13|------------|---------|---------||
  |------------|---------|---------||
  |4----4-6-7\3|---------|---------||
  |---4--------|0-2/4-R-4|R-4-7-4-7||
   E. S E E Q Q E E E E H H E E E E

II. First Verse [0:36]
(Play Bars 19-22, Eight Times)

19|------------|---------|---------||
  |------------|---------|---------||
  |4----4-6-7\3|---------|---------||
  |---4--------|0-2/4-R-4|R-4-7-4-7||
   E. S E E Q Q E E E E H H E E E E

III. First Chorus [1:25]
(Play Bars 19-22, Three Times)

49|------------|---------|---------|
  |------------|---------|---------|
  |4----4-6-7\3|---------|---------|
  |---4--------|0-2/4-R-4|R-4-7-4-7|
   E. S E E Q Q E E E E H H E E E E

58|------------|---------|---|---|---||
  |------------|---------|---|---|---||
  |4----4-6-7\3|---------|---|---|---||
  |---4--------|0-2/4-R-4|(R)|(R)|(R)||
   E. S E E Q Q E E E E H  w   w   w

IV. Second Verse [1:52]
(Play Bars 63-65, Three Times)

63|------------|---------|---------||
  |------------|---------|---------||
  |4----4-6-7\3|---------|---------||
  |---4--------|0-2/4-R-4|R-4-7-4-7||
   E. S E E Q Q E E E E H H E E E E

V. Guitar Solo [2:10]
(Play Bars 72-74, Four Times)

72|------------|---------|---------||
  |------------|---------|---------||
  |4----4-6-7\3|---------|---------||
  |---4--------|0-2/4-R-4|R-4-7-4-7||
   E. S E E Q Q E E E E H H E E E E

VI. Ending [2:35]
(For Bars 84-89, Rest)
(For Bars 90-92, Play Thirteen Times & Fade Towards Ending)
 
   [2:47]
90|------------|---------|---------||
  |------------|---------|---------||
  |4----4-6-7\3|---------|---------||
  |---4--------|0-2/4-R-4|R-4-7-4-7||
   E. S E E Q Q E E E E H H E E E E

TABLATURE NOTATION GUIDE
  I. Symbol Terminology
     Accompanying Chords (Shown above tablature lines) 
     Bar Numbers (Top-left corners of tablature lines)
     Tablature lines;
       |-| G-String
       |-| D-String
       |-| A-String
       |-| E-String
       |w| Note Value Line
      #/bpm. (Beats-per-minute)
      / OR \ = Slide

  II. Note Values (Placed below tablature lines)
     W   = Whole Note (4/4)
     H   = Half Note (2/4)	
     Q   = Quarter Note (1/4)
     E.  = Dotted-Eighth Note (3/16)
     E   = Eighth Note (1/8)
     S   = Sixteenth Note (1/16)	
     (#) = Tied note
     R   = Rest

Any Questions, Comments or Concerns, please contact me via the 
aforementioned e-mail address, above. 
 
   

            
            
Suggest correction
Creating personal tab
Creating personal tab
You can edit any tab online and save it as your Personal.

You can edit, replace or remove any tab part or add personal notes – all changes will be seen only by you.

Personal tabs can be accessed anytime from any device, even offline.
Learn more »
Give kudos to tab author, rate the tab!
1 2 3 4 5
comments
print report bad tab
guest
You may want to rate the tab now too:
select rating
Wanna post a correction for this tab? Suggest correction