Oops, an error
Loading. Please wait.

The Invite chords

by Pepper
91 views 1 this week
no commentswrite comment
1 2 3 4 5
3 more votes to show rating
add to favorites
×
Save as Personal and add changes to this tab that will be seen only by you. Learn more ›
×
You can save this tab as Personal to edit and correct it or add notes. All changes will be seen only by you. Learn more »
launch autoscroll
font size
0
reset
transpose
0
reset
display chords
guitar tuner
edit
Autoscroll
slow
fast
+/-
esc
set tempo
stop
Strumming
There is no strumming pattern for this song yet. and get +5 IQ
[Chords:]

       C      F      G       Am       D
e|-----0------1------3-------5-----------------|
B|-----1------1------3-------5--------7--------|
G|-----0------2------4-------5--------7--------|
D|-----2------3------5-------7--------7--------|
A|-----3-------------5-------7--------5--------|
E|-------------------3-------5-----------------|


[Intro] Played throughout the verse. Listen for upstroke picking pattern.

e|--------------------------------------------|
B|-----1-----1-------------1-----1------------|
G|-----0-----0-------------0-----0------------|
D|---2---2-----2--2------2---2-----2--2-------|
A|-3-------3-----3--3--3-------3-----3--3-----|
E|--------------------------------------------|

e|-----1-----1-------------1-----1-------------|
B|-----1-----1-------------1-----1-------------|
G|---2---2-----2--2------2---2-----2--2--------|
D|-3-------3-----3--3--3-------3-----3--3------|
A|---------------------------------------------|
E|---------------------------------------------|

[Verse]
C
Driving back from the bar
C
Check engine light in my car
F
This might not be the right plan
F
Thinking of driving again
C
Squandered too much time
C
Locked up inside of my mind
F
Talked myself out of my dreams
F
Afraid to fail routine


[Pre-Chorus]

 C                  
Take action, make it happen
F             
What are you waiting for
C                    
Too much talking, too much knocking
F              
Just kick down the door
Am              G
Make a move, see the light
Am             D
Make a move, it'll be alright


[Chorus]

C                   
Whoa yeah, welcome to your life
F               
Where you can live, if you want to live
C                   
Whoa yeah, welcome to your life
F             
Cause right now, your life is
Am             G
More than just being alive


[Verse]

C
I just need to begin
C
Stuck in my indecision
F
Some people lost at sea
F
They look a lot like me
C
No risk no reward I'm told
C
Jump now before I get old
F
This is my new train of thought
F
Just shit or get off the pot


[Pre-Chorus]

 C                  
Think action, make it happen
F             
What are you waiting for
C                    
Too much talking, too much knocking
F              
Just kick down the door
Am              G
Make a move, see the light
Am             D
Make a move, it'll be alright


[Chorus]

C                   
Whoa yeah, welcome to your life
F               
Where you can live, if you want to live
C                   
Whoa yeah, welcome to your life
F             
Cause right now, your life is
Am             G
More than just being alive
C               C
More than just being alive


[Instrumental]

e|----8---------------8------------------------------|
B|------8---10----------8---10-10-10-10-10-10-10-----|
G|--------9----10---------9----9--9--9--9--9--9------|
D|---------------------------------------------------|
A|---------------------------------------------------|
E|--8--------------8---------------------------------|


[Chorus]

C               
Whoa yeah, welcome to your life
F                 
Where you can live, if you want to live
C               
Whoa yeah, welcome to your life
F                   
Cause this life, this life is
C               
Whoa yeah, welcome to your life
F                 
Where you can live, if you want to live
C                 
Whoa yeah, welcome to your life
F                        
Cause this life, cause this life, this life is
Am           G          D 
More than just being alive

            
            
Suggest correction
Creating personal tab
Creating personal tab
You can edit any tab online and save it as your Personal.

You can edit, replace or remove any tab part or add personal notes – all changes will be seen only by you.

Personal tabs can be accessed anytime from any device, even offline.
Learn more »
Give kudos to tab author, rate the tab!
1 2 3 4 5
comments
print report bad tab
guest
You may want to rate the tab now too:
select rating
Wanna post a correction for this tab? Suggest correction