Oops, an error
Loading. Please wait.

Zickys Song bass

by Pepper
3,990 views 3 this week
4 commentsread comments
1 2 3 4 5
x 6
add to favorites
×
Save as Personal and add changes to this tab that will be seen only by you. Learn more ›
×
You can save this tab as Personal to edit and correct it or add notes. All changes will be seen only by you. Learn more »
launch autoscroll
font size
0
reset
guitar tuner
edit
Autoscroll
slow
fast
+/-
esc
set tempo
stop
Difficulty
Zicky's Song - Pepper

All the Pepper fans need to get the "No Shame" tabs in!

Verse
-----------------------------------------------------------|
---------------------------------------------6-6-----------|
---------7-7----4-4-7-7--------6-6---4-4-7-7-----7-7-------|
----5-5--------------------4-4-----------------------------|

Not too sure about the chorus but this sounds cool and almost like it:

-------------------------------------------------------|
------------------------------------------6-6----------|
-------7-7~~~-44-7-7~~~----6-6~~~-4-4-7-7-----7-7------|
----55------------------44-----------------------------|

Pay attention to when Brett pauses and then continues
~ = Let Ring
Fun song, Enjoy
Suggest correction
Creating personal tab
Creating personal tab
You can edit any tab online and save it as your Personal.

You can edit, replace or remove any tab part or add personal notes – all changes will be seen only by you.

Personal tabs can be accessed anytime from any device, even offline.
Learn more »
comments
print report bad tab
4 comments total. Showing first comments.
0 reply
sublimelover 41 Jun 09, 2007 07:02 PM

Nice tab bro. This is a fun song to play, thanx!

0 reply
caspah1914 10 Oct 07, 2009 04:21 PM

thank you so much for posting this !!

0 reply
Seanstrom 72 Jul 24, 2010 09:51 AM

idk, maybe i'm not hearing it right, but to me this sounds right...

Verse
-----------------------------------------------------------|
---------------------------------------------6-6-----------|
---------7-7----4-4-7-7--------6-6---4-4-7-7-----7-7-------|
----4-4--------------------4-4-----------------------------|

instead of 5-5 i use 4-4
idk maybe i'm just stupid

guest
Wanna post a correction for this tab? Suggest correction