Oops, an error
Loading. Please wait.

Zickys Song tab

version 1
version 1

Whole song

by Pepper
5,420 views 1 this week
3 commentsread comments
1 2 3 4 5
1 last vote to show rating
add to favorites
×
Save as Personal and add changes to this tab that will be seen only by you. Learn more ›
×
You can save this tab as Personal to edit and correct it or add notes. All changes will be seen only by you. Learn more »
launch autoscroll
font size
0
reset
how to read this tab
guitar tuner
edit
Autoscroll
slow
fast
+/-
esc
set tempo
stop
Intro

|--------------------------------------------------------------------------|
|--------------------------------------------------------------------------|
|--------------------------------------------------------------------------|
|-------------------------------------------------------66-----------------|
|------77--------44---77------------66----------44---77----77--------------|
|---55---------------------------44----------------------------------------|

Verse

|---5-----------------5-----------------------5----------------------------|
|------5-----------6------------4----------6-----6-------------------------|
|---------6-----7------------4----------7-----------7----------------------|
|------------------------6-------------------------------------------------|
|--------------------------------------------------------------------------|
|--------------------------------------------------------------------------|

Chorus

|---5------4------4------4-------------------------------------------------|
|---5------5------4------5-------------------------------------------------|
|---6------6------4------6-------------------------------------------------|
|---7------6------6------6-------------------------------------------------|
|---7------4------6------4-------------------------------------------------|
|---5------x------4------x-------------------------------------------------|

-palm mute the intro
-figure out the strumming for chorus

sorry, i can't figure out the solo

REPRESENT 808!



            
            
Suggest correction
Creating personal tab
Creating personal tab
You can edit any tab online and save it as your Personal.

You can edit, replace or remove any tab part or add personal notes – all changes will be seen only by you.

Personal tabs can be accessed anytime from any device, even offline.
Learn more »
Give kudos to tab author, rate the tab!
1 2 3 4 5
comments
print report bad tab
3 comments total.
0 reply
brandnew1411 72 Dec 02, 2007 02:08 PM

Hey I think figured out the right way to play
it....

Verse

e|----5-----4-----4-----
b|-----5-----5-----4----5
-5-----
g|-----6-----6-----5--
--6---6----
d|-----6-----


And then for the chours just stroke them and deaden the strings
inbetween each chord

0 reply
brandnew1411 72 Dec 02, 2007 02:14 PM

wow im sorry, that came out horrible and idk why.

Verse

e|--5-----4-----4---
b|---5-----5----4----5-5-
-
g|----6---6----5----6---6
-
d|-----6-----
-
And then for the chours just stroke them
and deaden the strings
inbetween each chord

0 reply
brandnew1411 72 Dec 02, 2007 02:14 PM

what the **** i give up

guest
Wanna post a correction for this tab? Suggest correction