Oops, an error
Loading. Please wait.

Dub Housing Bass Tab

191 views 1 this week
no commentswrite comment
1 2 3 4 5
please rate
add to favorites
launch autoscroll
font size
0
reset
guitar tuner
Autoscroll
slow
fast
+/-
esc
set tempo
stop
Help us to improve Ultimate-Guitar.com Take our survey!
×
Author
Difficulty
novice
-----------------------------------------------------------------------------
                             Dub Housing - Pere Ubu
-----------------------------------------------------------------------------
Tabbed by: David K
E-mail: this charming man 13 (at) gmail (dot) com

Tuning: Std.

This is all of it except for the chaotic middle part, but it's just a couple
notes, this is the main chunk. Hope it helped!

G|---------------------------5-3---------------------------------------------|
D|---3----------------3-5/7------5-4-3---------------------------------------|
A|-5x--5--3---3-3---5x-----------------3-------------------------------------|
E|----------3----------------------------------------------------------------|

G|---------------------------------------------------------------------------|
D|---3----------------3-5/7--------------------------------------------------|
A|-5x--5--3---3-3---5x------6-6-6-6-5-6--------------------------------------|
E|----------3----------------------------------------------------------------|

| /  slide up
| \  slide down
| h  hammer-on
| p  pull-off
| ~  vibrato
| +  harmonic
| x  Mute note
=============================================================================
Suggest correction
Give kudos to tab author, rate the tab!
1 2 3 4 5
comments
print report bad tab
guest
You may want to rate the tab now too:
select rating
Please do not post tabs as comments. Select "correction" instead!