Oops, an error
Loading. Please wait.

Nonalignment Pact Tab

307 views 6 this week
no commentswrite comment
1 2 3 4 5
2 more votes to show rating
add to favorites
launch autoscroll
font size
0
reset
how to read this tab
guitar tuner
×
Best way to learn
"Nonalignment Pact"
Autoscroll
slow
fast
+/-
esc
set tempo
stop
Author
Difficulty
  follow
intermediate
Intro (listen for where the slides are exactly)
E|---------------------------------
B|--3/5-5-3/5-5-3/5-5-3/5-5-3/5-5-4
G|--2/4-4-2/4-4-2/4-4-2/4-4-2/4-4-4
D|---------------------------------
A|---------------------------------
E|---------------------------------

Verse
E|-------------------|------------------
B|-------------------|------------------
G|-------------------|---------9----9-9-
D|-------------------|---------9----9-9-
A|--4-4-5-5-6-6-7-7--|---------7----7-7-
E|--2-2-3-3-4-4-5-5--|--0-0-0-----0-----

[Chorus]
B   A        E  
Nonalignment pact
B   A        E 
Nonalignment pact, you better sign it
B   A        E
Nonalignment pact
B   A        E
Nonalignment pact

[Verse]

'Peggy, Carrie Ann and Betty Jean'
E|--------------------------|--------------------|
B|--------------------------|----------9---------|
G|--------5-----------4-----|-------9------------|
D|-----5-----5-----4-----4--|----9---------------|
A|--3-----------2-----------|-7------------------|
E|--------------------------|--------------------|

Repeat 4 times, then let ring

C5         B5       E5  
It's all because of you girl! You know

C5         B5       E5
It's all because of you

E5         B5       E5   
It's all because of you girl! You know

C5         B5       E5
It's all because of you! You better sign my

[Chorus] 

[Bridge (play intro again)]
E|---------------------------------
B|--3/5-5-3/5-5-3/5-5-3/5-5-3/5-5-4
G|--2/4-4-2/4-4-2/4-4-2/4-4-2/4-4-4
D|---------------------------------
A|---------------------------------
E|---------------------------------

[Chorus] ad inf.
End on E
Suggest correction
Give kudos to tab author, rate the tab!
1 2 3 4 5
comments
print report bad tab
guest
You may want to rate the tab now too:
select rating
Wanna post a correction for this tab? Suggest correction