Oops, an error
Loading. Please wait.

Margot tab

by Pereza
236 views 3 this week
no commentswrite comment
1 2 3 4 5
3 more votes to show rating
add to favorites
×
Save as Personal and add changes to this tab that will be seen only by you. Learn more ›
×
You can save this tab as Personal to edit and correct it or add notes. All changes will be seen only by you. Learn more »
launch autoscroll
font size
0
reset
how to read this tab
guitar tuner
edit
Autoscroll
slow
fast
+/-
esc
set tempo
stop
Hola a todos, os voy mostrar como podéis tocar Margot,
de Pereza, con dos guitarras, si es posible que sean eléctricas,
aunque en acústicas también queda bastante bien.
Os lo explicaré todo paso a paso en lo que puede llegar
a ser una ?aproximación? muy cercana a las guitarras de Rubén y Leiva:
Para empezar vamos a usar dos guitarras,
en la de Rubén aparecerán los acordes que se tocaran
con la cejilla en el cuarto traste (en Do sostenido):
           E G B D A E
G:         3 3 0 0 2 3
C:         0 1 0 2 3 0
Am:        0 1 2 2 0 0
B/D:       0 1 0 0 2 0
F:         1 1 2 3 3 1
La guitarra de Rubén, además, no deberá tocar con púa,
sino con los dedos, tirando de las cuerdas de manera intermitente,
 él mantiene el ritmo. Ambos tocan en distorsionado y con el Delay
puesto (el eco).
(Esto es solo para la eléctrica).
En cuanto a Leiva, utiliza la escala pentatónica menor
(en Fa sostenido obviamente), os la escribo y ya la improvisáis:
E:-------------------------------9--------------
B:--------------------------9--12---12-9--------
G:-------------------9-11----------------11-9---
D:--------------9-11--------------------------11-
A:--------9-11----------------------------------
E:--9-12-----------------------------------------
Y:
E:-----------------------------4-7-4--------------
B:-------------------------5-7--------7-5-----------
G:-------------------4-6-------------------6------
D:--------------4-6------------------------------
A:--------4--7----------------------------------
E:----------------------------------------------

Para hacer estas improvisaciones,utilizad solo las tres cuerdas
E B G,las mas agudas,auna asi os voy a dejar algunos toques de
Leiva de los conciertos:

Empieza solo Rubén con su rítmica:
C      B/D       Am        F       C       G
?Donde estarás esta noche, donde va a ser el fiestón,
C      B/D       Am        F       C       G
donde estarás esta noche, mientras te hago esta canción,
F                   C       G            Am
que habrá sido de tu coche, esa chatarra de Ford,
 F                  C         G     F       G       C
que habrá sido desde entonces, que llevaras puesto hoy.
(Ahora entra la bateria a la vez que Leiva rasguea la guitarra y
hace estos toques):
E:----12----14-12-14-12-
B:--12---12------------
G:---------------------
D:---------------------
A:---------------------
E:---------------------
C      B/D       Am        F       C       G
Donde estarás esta noche, donde va a ser el fiestón,
C      B/D       Am        F       C       G
 donde estarás esta noche, mientras te hago esta canción,
F                   C       G            Am
 siempre con prisa por algo, siempre a contrarreloj,
 F                  C         G     F       G       C
 siempre planeando el cambio, siempre sin frenos Margot.
(Y en este momento entra Leiva con su pentatonica,os
dejo algo que debeis tocar siempre justo despues de decir noche,
gente y poderes):
E:--4-----------------------------------------
B:---5---4>5-4>5>>10----10-9-9---7----5---5---
G:----------------------------9----8----6---4-
D:--------------------------------------------
A:--------------------------------------------
E:--------------------------------------------

C      B/D       Am        F       C       G
Donde estarás esta noche, donde estarás corazón,
C      B/D       Am        F       C       G
donde estarás esta noche, mientras te hago esta canción,
F                   C       G            Am
donde estarán tus poderes, tu fuerza de convicción,
F                  C         G     F       G       C
que hará contigo la gente, ahora que ya no estoy yo. Aahh¡¡
(Este es el solo):
*:VIBRATO
>:SLIDE
E:--------11-----------14>12****---11----11>12******>>17>16-17>16-
B:-12******---12------------------12----12----------------------
G:---------------11>9-9**---------------------------------------
D:---------------------------------------------------------------
A:---------------------------------------------------------------
Sigue:
E:-------------------------------------------------------
B:-14---------------------------------------------------
G:-----16---14---13--11---9*******-8*****-6*****-4******-
D:-------------------------------------------------------
A:-------------------------------------------------------
E:-------------------------------------------------------


F                        C                        G
Nena, no podía seguir tu rueda, removí cielo con tierra
                      Am
entre tu mezcla, de la carne y el cañón.
    F                               C
Magdalena, siempre puesta hasta la bandera,
                       G       G    F   G   C
empezaste a montar la fiesta, sola en tu habitación.
 F                      C      G         Am
Y aun sigues siendo la reina , del curso ?92,
F                   C     G   F     G         C
donde estarás esta noche, sigues entre nosotros Margot?.

Ya se acabó, espero que os haya gustado,
en especial el solo de Leiva,
que lo saque por oí todas formas debeis escuchar la
cancion para quedaros con ritmos y punteos.
Para cualquier cosa,
mi dirección:venegas1889?
o mi Tuenti: José Venegas Rodríguez (Huelva).
UN ABRAZO A EL RUBÉN Y OTRO A  HACIENDO MAGIA.
Suggest correction
Creating personal tab
Creating personal tab
You can edit any tab online and save it as your Personal.

You can edit, replace or remove any tab part or add personal notes – all changes will be seen only by you.

Personal tabs can be accessed anytime from any device, even offline.
Learn more »
Give kudos to tab author, rate the tab!
1 2 3 4 5
comments
print report bad tab
guest
Wanna post a correction for this tab? Suggest correction