Oops, an error
Loading. Please wait.

Quiero Hacerlo Esta Noche Contigo tab

by Pereza
55 views 1 this week
no commentswrite comment
1 2 3 4 5
3 more votes to show rating
add to favorites
×
Save as Personal and add changes to this tab that will be seen only by you. Learn more ›
×
You can save this tab as Personal to edit and correct it or add notes. All changes will be seen only by you. Learn more »
launch autoscroll
font size
0
reset
how to read this tab
guitar tuner
edit
Autoscroll
slow
fast
+/-
esc
set tempo
stop
Wenas de nuevo!!!
Estoy otra vez aquí con otra buena canción del disco de animales.
La canción es un poco liosa y tiene dos guitarras (lo típico, Rubén y
Pitu), y cada uno toca algo parecido pero en diferentes cuerdas. Aquí
pongo las 2 guitarras para que cada uno toque lo que le venga en gana,
aunque yo recomiendo la de Pitu que es la que más se oye.

No sé si estará muy bien. A mí me suena bien casi todo pero bueno, el que
tenga alguna duda o quiera decirme algo aquí dejo mi dire:
manu15paramo@

A disfrutarla!!!

DESARROLLO:
------------
1. Se tocan las partes de Rubén 1 y Pitu 1 hasta que empieza
"escucha bien lo que digo...".
2. Se tocan Rubén 2 y Pitu 2 desde "porque no voy a ser más
mi propio enemigo...".
3. Se tocan Rubén 3 (toca en quintas) y Pitu 3 (punteo) desde
"hoy vamos a hacer lo que no hemos podido...".
4. Se repite todo otra vez y sigue "...contigo..." y luego
empieza el punteo de super Pitu (Pitu 4).
5. Se toca el estribillo otra vez.


    RUBÉN 1              PITU 1            RUBÉN 2           PITU 2

|---------------|   |--------------|   |-------------|   |--0--0--3--5--|
|---------------|   |--3/2-0--2-0--|   |-------3--5--|   |--------------|
|--------3---3--|   |--------------|   |--4-4--------|   |--------------|
|--2-2-2--------|   |--------------|   |-------------|   |--------------|
|---------------|   |--------------|   |-------------|   |--------------|
|---------------|   |--------------|   |-------------|   |--------------|


                      RUBÉN 3

|---------------------------------------|-----------------------|
|---------------------------------------|-----------------------|
|---------------------------------------|-----------------------|
|--5-5-5-5-4-4-3-3--2-2-5--7--2-2-5--7--|-5-5-5-5-4-4-3-3--2-2--|
|--5-5-5-5-4-4-3-3--2-2-5--7--2-2-5--7--|-5-5-5-5-4-4-3-3--2-2--|
|--3-3-3-3-2-2-1-1--0-0-3--5--0-0-3--5--|-3-3-3-3-2-2-1-1--0-0--|

|------------------|----------------------------------|
|------------------|----------------------------------|
|------------------|----------------------------------|
|-2-2-4-4-5-5-7-7--|-2-2-4-4-5-5-7-7-9-9-9-9-9-9-9/0--|
|-2-2-4-4-5-5-7-7--|-2-2-4-4-5-5-7-7-9-9-9-9-9-9-9/0--|
|-0-0-2-2-3-3-5-5--|-0-0-2-2-3-3-5-5-7-7-7-7-7-7-7/0--|


                        PITU 3

|--------------------------0---------0--|-------------------|
|--3-3-3-3-2-2-1-1--0-0-3-----0-0-3-----|--3-3-3-3-2-2-1-1--|
|---------------------------------------|-------------------|
|---------------------------------------|-------------------|
|---------------------------------------|-------------------|
|---------------------------------------|-------------------|

|--0-0-2-2-3-3-5-5--|--0-0-2-2-3-3-7-7-7-7-7-7-7/0--|
|-------------------|-------------------------------|
|-------------------|-------------------------------|
|-------------------|-------------------------------|
|-------------------|-------------------------------|
|-------------------|-------------------------------|


                                PITU 4

|---------------------|--7-5-3-5-3-2-3-2-0-2-0---0--------------------|
|---------------------|------------------------3---3-2-3-2-0-2-0---2--|
|---------------------|------------------------------------------2----|
|--9-x-x-9/5-x-x-5/0--|-----------------------------------------------|
|--9-x-x-9/5-x-x-5/0--|-----------------------------------------------|
|--7-x-x-7/3-x-x-3/0--|-----------------------------------------------|

  _______ _________/   ______________________ _____________________/
          V                                    V
      Palm Mute                 Tocar rápidamente y muchas veces*


|------------------0---0-3-0-3-5---7--|
|----0-2-0-2-3-2-3---3----------------|
|--2----------------------------------|
|-------------------------------------|
|-------------------------------------|
|-------------------------------------|

__________________ _________________/
                   V
    Tocar rápidamente y muchas veces*

* En el solo se toca cada nota que puse muchas veces. No he puesto el
número porque verdaderamente no tengo ni idea de cuántas veces son,
pero si escuchas varias veces el solo te queda en la cabeza cuánto tiempo
dura cada nota.


Esto es todo, espero que sea de ayuda a todo el mundo, en especial a esos
grupos de dos guitarristas que quieren tocar la canción a 2 guitarras.

            
            
Suggest correction
Creating personal tab
Creating personal tab
You can edit any tab online and save it as your Personal.

You can edit, replace or remove any tab part or add personal notes – all changes will be seen only by you.

Personal tabs can be accessed anytime from any device, even offline.
Learn more »
Give kudos to tab author, rate the tab!
1 2 3 4 5
comments
print report bad tab
guest
Wanna post a correction for this tab? Suggest correction