Oops, an error
Loading. Please wait.

Superman tab

by Pereza
20 views 1 this week
no commentswrite comment
1 2 3 4 5
3 more votes to show rating
add to favorites
×
Save as Personal and add changes to this tab that will be seen only by you. Learn more ›
×
You can save this tab as Personal to edit and correct it or add notes. All changes will be seen only by you. Learn more »
launch autoscroll
font size
0
reset
how to read this tab
guitar tuner
edit
Autoscroll
slow
fast
+/-
esc
set tempo
stop
esta es mi primera transcripcion, espero q os guste,
ya vere que os parece...
gracias a enrique c.c.


Intro.
e ------------------8_-5_-------------------------------
B --8-6---6-8-6---6-------------------------------------
G ------9-------8---------------------------------------
D ------------------------------------------------------
A ------------------------------------------------------
E ------------------------------------------------------    2X


1.
F      C
Ya lo se
F           C              F
todo lo que haces lo haces bien
Gm        Bb
tienes un 10.
F      C
Sin pensar
F          C             F
cada día te odio un poco mas
Gm       Bb
un poco mas.

Gm  F   C
NO SERE YO
                Gm
QUIEN DIGA SE ACABO
   F     C
SE ME DA MAL.


1.
Superman estuvo aquí
y me pregunto por ti
ahora no esta.
Hace días que no estas
creo que he empezado ya
a alucinar.

2.
Gm F    C
NO SERE YO
                Gm
QUIEN DIGA SE ACABO
   F    C     Bb
SE ME DA MAL, MUY MAL.

3.
F        C          F      Bb               F
PERO SI TU NO ESTAS AQUÍ  (si tu no estas aquí)
           C     F       Bb
YO CREO QUE VOY A MORIR.
F    C         F     Bb            F
Y SI ANDAS POR AHI  (riéndote de mi)
         Gm              Bb
PUEDE QUE HOY SALGA A POR TI.

Intro.

1.
No se si ves
que me he pegao tres vidas a tus pies
diciendo que.
Quédate
un día más ya no te fallare
jamás lo haré.

2.
NO SERE YO
QUIEN DIGA SE ACABO
SE ME DA MAL, MUY MAL.

3.
PERO SI TU NO ESTAS AQUI
(si tu no estas aquí)
YO CREO QUE VOY A MORIR.
Y SI ANDAS POR AHI
(riéndote de mi)
PUEDE QUE HOY SALGA A POR TI.

e--------------------------------------------------
B-12-12----10-12-10-------------------13-12-10-----
G-------12----------12-11-12_-9-11-12----------12_-
D--------------------------------------------------
A--------------------------------------------------
E--------------------------------------------------

e--------------------------------------------------
B--------------------------------------------------
G-12-12-12-10_-10-10-10------10-12-12-10-10-7-10---
D----------------------7-10------------------------
A--------------------------------------------------
E--------------------------------------------------


3.(+1 tono)
G       D           G       C               G
PERO SI TU NO ESTAS AQUI  (si tu no estas aquí)
           D     G       C
YO CREO QUE VOY A MORIR.
G    D         G     C            G
Y SI ANDAS POR AHI  (riéndote de mi)
          Am            C
PUEDE QUE HOY QUEME MADRID.

PERO SI TU NO ESTAS AQUI  (si tu no estas aquí)
YO CREO QUE VOY A MORIR.
Y SI ANDAS POR AHI  (riéndote de mi)
PUEDE QUE HOY SALGA A POR TI.


Final: G

            
            
Suggest correction
Creating personal tab
Creating personal tab
You can edit any tab online and save it as your Personal.

You can edit, replace or remove any tab part or add personal notes – all changes will be seen only by you.

Personal tabs can be accessed anytime from any device, even offline.
Learn more »
Give kudos to tab author, rate the tab!
1 2 3 4 5
comments
print report bad tab
guest
Wanna post a correction for this tab? Suggest correction