Oops, an error
Loading. Please wait.

Kolysanka Dla Nieznajomej Tab

version 1
version 1

Whole song

Interactive

67,042 views 15 this week
no commentswrite comment
1 2 3 4 5
excellent!
x 4
add to favorites
launch autoscroll
font size
0
reset
how to read this tab
guitar tuner
Autoscroll
slow
fast
+/-
esc
set tempo
stop
Help us to improve Ultimate-Guitar.com Take our survey!
×
Author
Perfect - Kołysanka dla nieznajomej


E----------0----3/5\3-------------0----3/5\3p0------1-1-1-|
B-1-----1-------3/5\3----1-----1-------3/5\3p0--1---1-1-1-|
G-0--0-------------------0--0-------------------2---3-3-2-|
D-----------------------------------------------3---------|
A-3----------------------0----------------------3---------|
E---------------------------------------------------------|


E---/6-6-5-3-1-1-------------|
B---/6-6-6-3-1-1-1-----------|
G---/5-5-5---3-2-0-----------|
D------------------0h2-0-----|
A----------------------------|
E----------------------------|

Gdy nie bawi Cię…

E----0-x-0-x--0-x-0-x-0-x--1-x-1-x--1------------------------|
B----1-x-1-x--1-x-1-x-1-x--1-x-1-x--1--1-1-1-----------------|
G----0-x-0-x--2-x-0-x-0-x--2-x-2-x--0--0h2-2-0h2-0-----------|
D----2-x-2-x--2-x-2-x-2-x--3-x-3-x--3--3-3-3-------0h2-0-----|
A----3-x-3-x--0-x-0-x-0-x--3-x-3-x--3------3-----------------|
E------------------------------------------------------------|

Kiedy dręczy…
                                              nie fizyczny
E----0-x-0-x--0-x---------------1-x-1-x-----------------------|
B----1-x-1-x--1-x--0h1/3\1p0----1-x-1-x--1-1-----1-1h3-1------|
G----0-x-0-x--2-x---------------2-x-2-x--0h2--0h2--------0h2--|
D----2-x-2-x--2-x--0h2/4\2p0----3-x-3-x--3-3------------------|
A----3-x-3-x--0-x---------------3-x-3-x--3--------------------|
E-------------------------------------------------------------|

Zamiast...

E--0-x-0-x--0-x-0-x---------------------------------------|
B--1-x-1-x--1-x-1-x-0-x-0---x-0-x-1-x-1-1-1--1------------|
G--0-x-0-x--2-x-2-x-0-x-0---x-0-x-2-x-2-2-0--2------------|
D--2-x-2-x--2-x-2-x-2-x-0p2-x-2-x-3-x-3-3-2--3------------|
A--3-x-3-x--0-x-0-x-2-x-2---x-2-x-3-x-3-3-3--3------------|
E-----------------------------------------3---------------|

Spytaj...

E------0------------0-x--------------1h3-1-3----0-x---------|
B----1---1------3---1-x--1-x-1-x-1-x-1---1-3h5--1-x---------|
G--2-------2-0--0---2-x--2-x-2-x-2-x-2---2-4----0-x---------|
D---------------0---2-x--3-x-3-x-3-x------------2-x---------|
A---------------2---0-x--3-x-3-x-3-x------------3-x---------|
E-----------------------------------------------------------|

Gdy udając że śpisz…

E----0-x-0-x--0---------------1-x-1-x------1-------------|
B----1-x-1-x--1--0h1/3\1p0----1-x-1-x--1-1-1-------------|
G----0-x-0-x--2---------------2-x-2-x--0h2-2-0h2-0-------|
D----2-x-2-x--2--0h2/4\2p0----3-x-3-x--3-3-3-------0h2-0-|
A----3-x-3-x--0---------------3-x-3-x--3---3-------------|
E--------------------------------------------------------|


Kiedy nie chcesz już śnić…

E-0-x-0-x--0-x--------------1-11-1-1----------------------|
B-1-x-1-x--1-x--0h1/3\1p0---1-11-1--1---1------1-1h3------|
G-0-x-0-x--2-x--------------2-33-2----0-0h2-0h2-------0h2-|
D-2-x-2-x--2-x--0h2/4\2p0---3-----------3-----------------|
A-3-x-3-x--0-x--------------3-----------------------------|
E---------------------------------------------------------|

Bosa do mnie...

E--0-x-0-x--0-x-0-x---------------------------------------|
B--1-x-1-x--1-x-1-x-0-x-0---x-0-x-1-x-1-1-1--1------------|
G--0-x-0-x--2-x-2-x-0-x-0---x-0-x-2-x-2-2-0--2------------|
D--2-x-2-x--2-x-2-x-2-x-0p2-x-2-x-3-x-3-3-2--3------------|
A--3-x-3-x--0-x-0-x-2-x-2---x-2-x-3-x-3-3-3--3------------|
E-----------------------------------------3---------------|

Słuchaj jak dwa serca...

E------0------------0-x--------------1h3-1-3----0-x---------|
B----1---1------3---1-x--1-x-1-x-1-x-1---1-3h5--1-x---------|
G--2-------2-0--0---2-x--2-x-2-x-2-x-2---2-4----0-x---------|
D---------------0---2-x--3-x-3-x-3-x------------2-x---------|
A---------------2---0-x--3-x-3-x-3-x------------3-x---------|
E-----------------------------------------------------------|


Kochaj...

E----0--1--0-------------0-x----0--1--0----------3-1-0-x----|
B----1--0--1--1h3h1-0-3--1-x----1--0--1--1h3h1-0-----1-x----|
G----0--0--0--------0-0--0-x----0--0--0--------0-----0-x----|
D----2--0--2-------------2-x----2--0--2--------------2-x----|
A----3--2--0--------2-2--3-x----3--2-----------2-----3-x----|
E-------3--------------------------3------------------------|

Kochaj mnie nieprzytomnie...

E-0--1--0-x-0-x------------------1-x-1-x-0-1-x-0-|
B-1--0--1-x-1-x--0-x-0---x-0-x---1-x-1-x-1-1-x-1-|
G-0--0--0-x-0-x--0-x-0---x-0-x---2-x-2-x-0-2-x-2-|
D-2--0--2-x-2-x--2-x-0p2-x-2-x---3-x-3-x-2-3-x-3-|
A-3--2--0-x-0-x--2-x-2---x-2-x---3-x-3-x-3-3-x-3-|
E----3-----------------------------------3-------|


Kochaj mnie namiętnie tak.                      Jakby świat się...

E-0------0------------0-x--0--0------0------------------0-------|
B---1------1-----1--3-1-x--1----1------1-----1------3-1---1-1-x-|
G------------2------0-0-x--2-------------2--------0---------0-x-|
D------3------------0-2-x--3-------3------------0-----------2-x-|
A-------------------2-0-x--3--------------------------------3-x-|
E---------------------------------------------------------------|


E----0-x-0---0-x-------------1-x-1-x--------------------|
B----1-x-1---1-x-0h1/3\1p0---1-x-1-x--1-1-1-------------|
G----0-x-0---2-x-------------2-x-2-x--0h2-2-0h2-0-------|
D----2-x-2---2-x-0h2/4\2p0---3-x-3-x--3-3-3-------0h2-0-|
A----3-x-3---0-x-------------3-x-3-x--3---3-------------|
E-------------------------------------------------------|

E-0-x-0-x--0-x-0-x--1-11-1-1----------------------|
B-1-x-1-x--1-x-1-x--1-11-1--1---1------1-1h3------|
G-0-x-0-x--2-x-0-x--2-33-2----0-0h2-0h2-------0h2-|
D-2-x-2-x--2-x-2-x--3-----------3-----------------|
A-3-x-3-x--0-x-0-x--3-----------------------------|
E-------------------------------------------------|


Swoje miejsce znajdź....

E--0-x-0-x--0-x-0-x---------------------------------------|
B--1-x-1-x--1-x-1-x-0-x-0---x-0-x-1-x-1-1-1--1------------|
G--0-x-0-x--2-x-2-x-0-x-0---x-0-x-2-x-2-2-0--2------------|
D--2-x-2-x--2-x-2-x-2-x-0p2-x-2-x-3-x-3-3-2--3------------|
A--3-x-3-x--0-x-0-x-2-x-2---x-2-x-3-x-3-3-3--3------------|
E-----------------------------------------3---------------|

                           W miłosnej studni...

E------0------------0-x--------------1h3-1-3----0-x---------|
B----1---1------3---1-x--1-x-1-x-1-x-1---1-3h5--1-x---------|
G--2-------2-0--0---2-x--2-x-2-x-2-x-2---2-4----0-x---------|
D---------------0---2-x--3-x-3-x-3-x------------2-x---------|
A---------------2---0----3-x-3-x-3-x------------3-x---------|
E-----------------------------------------------------------|


Kochaj...

E----0--1--0-------------0-x----0--1--0--------------0-x----|
B----1--0--1--1h3h1-0-3--1-x----1--0--1--1h3h1-0-----1-x----|
G----0--0--0--------0-0--0-x----0--0--0--------0-----0-x----|
D----2--0--2-------------2-x----2--0--2--------------2-x----|
A----3--2--0--------2-2--3-x----3--2-----------2-----3-x----|
E-------3--------------------------3------------------------|


Kochaj mnie nieprzytomnie...

E-0--1--0-x-0-x------------------1-x-1-x-0-1-x-0-x-|
B-1--0--1-x-1-x--0-x-0---x-0-x---1-x-1-x-1-1-x-1-x-|
G-0--0--0-x-0-x--0-x-0---x-0-x---2-x-2-x-0-2-x-0-x-|
D-2--0--2-x-2-x--2-x-0p2-x-2-x---3-x-3-x-2-3-x-2-x-|
A-3--2--0-x-0-x--2-x-2---x-2-x---3-x-3-x-3-3-x-3-x-|
E----3-----------------------------------3---------|

Kochaj...

E----0--1--0-------------0-x----0--1--0--------------0-x----|
B----1--0--1--1h3h1-0-3--1-x----1--0--1--1h3h1-0-3---1-x----|
G----0--0--0--------0-0--0-x----0--0--0--------0-0---0-x----|
D----2--0--2-------------2-x----2--0--2--------------2-x----|
A----3--2--0--------2-2--3-x----3--2--0--------2-2---3-x----|
E-------3--------------------------3------------------------|


Kochaj mnie nieprzytomnie jak księżyc...

E-0--1--0-x-0-x------------------0--|
B-1--0--1-x-1-x--0-x-0---x-0-x---1--|
G-0--0--0-x-0-x--0-x-0---x-0-x---2--|
D-2--0--2-x-2-x--2-x-0p2-x-2-x---3--|
A-3--2--0-x-0-x--2-x-2---x-2-x---3--|
E----3------------------------------|

 Na linie...                               aż w jedną...
E-0------0------------0---0--0------0---------0---------|
B---1------1--------3-1---1----1------1-----3-1--1--3h5-|
G------------2-0----0-0---2-------------2-0-0-0--2--4---|
D------3------------0-2---3-------3---------0-2--3--5---|
A-------------------2-0---3-----------------2-0--3--5---|
E-------------------------------------------------------|

E----------0----3/5\3-------------0----3/5\3p0----|
B-1-----1-------3/5\3----1-----1-------3/5\3p0--1-|
G-0--0-------------------0--0-------------------2-|
D-----------------------------------------------3-|
A-3----------------------0----------------------3-|
E-------------------------------------------------|

E--1-1-1----/6-6-5-3-1-1------------3--|
B--1-1-1----/6-6-6-3-1-1-1----------3--|
G--3-3-2----/5-5-5---3-2-0h2h0------0--|
D------------------------------2p0--2--|
A-----------------------------------3--|
E--------------------------------------|
Suggest correction
What's this?
You can suggest a correction to this tab. Community and Mods will review your correction and vote to approve or reject it.
comments
print report bad tab
guest
You may want to rate the tab now too:
select rating
Please do not post tabs as comments. Select "correction" instead!