Oops, an error
Loading. Please wait.

Koysanka Dla Nieznajomej Tab

10,613 views 1 this week
no commentswrite comment
1 2 3 4 5
1 last vote to show rating
add to favorites
launch autoscroll
font size
0
reset
how to read this tab
guitar tuner
Autoscroll
slow
fast
+/-
esc
set tempo
stop
Help us to improve Ultimate-Guitar.com Take our survey!
×
Author
Perfect
Ko³ysanka dla nieznajomej

Tab by : Filipgitara......I just found this song in internet

|-7---7---7--7--7---------------2-----|
 |-10--10--9--7--10\9------------4-----|
 |-9---9---9--8---8----4---------4-----|
 |-9---9---9--9---9----4---------4-----|
 |-7---7---7------7------4/6\4---2-----|
 |-------------------------------2-----|
                                                                              

   H               gis  E	   		 [Lick1]
  Gdy nie bawi Cie juz swiat zabawek mechanicznych 
   H               gis [Lick2]      E	       [Lick1]
  Kiedy dreczy Cie bol              niefizyczny
   H			gis	       H			  E   [Lick3]	
  Zamiast sluchac bzdur glupich telefonicznych wrozek zza siedmiu morz
   E		      Fis  gis    E			Fis     H 	
  Spytaj siebie czego pragniesz, dlaczego klamiesz ze mialas wszystko
   H		  gis [Lick2]  E         		   [Lick1]
  Gdy udajac ze spisz         w glowie tropisz bajki z gazet
   H                   gis [Lick2]  E		 [Lick1]
  Kiedy nie chcesz juz snic        cudzych marzen
   H		       gis	        H                           E [Lick3]
  Bosa do mnie przyjdz i od progu bezwstydnie powiedz mi czego chcesz
   E			Fis gis    E		        H
  Sluchaj jak dwa serca bi--ja co ludzie mysla to nieistotne

   H Cbsus4 H [Lick4] H
  Kochaj mnie 
   H Cbsus4 H [Lick4] H
  Kochaj mnie
   H Cbsus4 H 	     gis     H				 Fis 		 E [Lick5]
  Kochaj mnie nieprzytomnie jak zapalniczka plomien jak sucha studnia wode
	  Fis    gis [Lick5]  Fis		      H
  Kochaj mnie namietnie tak          jakby swiat sie skonczyc mial
 
  [Solo]
|-----------------------------------------------------9^10^9-----------------|
|-7----7-------------------------------------------8^9-------9-12-11^12------|
|--6^7--6^7\4----------4-3^4----4-6^7~-6^7^6-4h6p4----------------------9^10-|
|-------------6-5^6-4/6------4/6---------------------------------------------|
|----------------------------------------------------------------------------|
|----------------------------------------------------------------------------|

   H		      gis		H		       E [Lick3]
  Swoje miejsce znajdz i nie pytaj czy taki uklad ma jakis sens
   E		       Fis gis     E			  H	
  Sluchaj co twe cialo mo--wi w milosnej studni juz nie utoniesz


   H Cbsus4 H [Lick4] H
  Kochaj mnie 
   H Cbsus4 H [Lick4] H
  Kochaj mnie
   H Cbsus4 H 	     gis      H				 Fis 		H 
  Kochaj mnie nieprzytomnie jak zapalniczka plomien jak sucha studnia wode
   H  Fis  H [Lick4] H
  Kochaj mnie 
   H  Fis  H [Lick4] 		  H				E [Lick5]
  Kochaj mnie nieprzytomnie jak ksiezyc w oknie smiej sie i placz
      Fis	   gis	   E   [Lick5]	
  Na linie nad przepascia tancz
      Fis	       gis  E	
  Az w jedna krotka chwile pojmiesz po co zyjesz

|-------------------------------------------7---7---7--7----------------2--|
|-------4-7h9p7-4-----4-7/9\7---------------10--10--9--7----------------2--|
|-4---4---6-----4---4---6/8\6-8-9--9---9----9---9---9--8--9----4-----6--4--|
|---4-----------6-4-------------9--6/7-7\6--9---9---9--9--7\6--4-----4--4--|
|---------------6---------------7-----------7---7---7------------4/6-4--2--|
|-----------------------------------------------------------------------2--|


    [Lick1]    H	        [Lick2] B	   [Lick2] C
|------------------2----|   |---------------|  |----------------|
|----------7---7---4----|   |---------------|  |----------------|
|--4/6--4--6h8-6---4----|   |--4-4/6--6\4---|  |----------------|
|--4/6--4----------4----|   |---------------|  |-2-----4-4--2---|
|------------------2----|   |---------------|  |-2--2--4-2--2---|
|------------------2----|   |---------------|  |-0--2-------0---|

    [Lick4] D		   [Lick5]  E
|-------------2---|  |----------------|  
|-------------4---|  |----------------|  
|-4h6p4----6--4---|  |----------------|  
|-------4-----4---|  |-1-------1------|  
|-------------2---|  |---2--------2---|  
|-------------2---|  |-----0----------|  


       Cbsus4
  E |----2------|  
  H |----5------|
  G |----4------|
  D |----4------|
  A |----2------|
  E |----2------|
Suggest correction
Give kudos to tab author, rate the tab!
1 2 3 4 5
comments
print report bad tab
guest
You may want to rate the tab now too:
select rating
Wanna post a correction for this tab? Suggest correction