Oops, an error
Loading. Please wait.

Nie Pacz Ewka Chords

12,706 views 30 this week
2 commentsread comments
1 2 3 4 5
x 5
add to favorites
launch autoscroll
font size
0
reset
transpose
0
reset
display chords
guitar tuner
Autoscroll
slow
fast
+/-
esc
set tempo
stop
Help us to improve Ultimate-Guitar.com Take our survey!
×
Author
Difficulty
novice
Artist: Perfect
Song: Nie Płacz Ewka
Tunning: standard
Tab by: cornello

Now, enjoy the song:)

============================================================================

Chords used (may be played D DU UDU as well)

Verse:
              A                         F#m
E1|-----------0----0---------|-----------2----2---------|
H2|-----------------2--------|-----------------2--------|
G3|---------2--------2-------|---------2--------2-------|
D4|--------------------------|--------------------------|
A5|-----0--------------------|--------------------------|
E6|--------------------------|-----2--------------------|

              E                          E
E1|-----------0----0---------|-----------0----0---------|
H2|-----------------0--------|-----------------0--------|
G3|---------1--------1-------|---------1--------1-------|
D4|--------------------------|--------------------------|
A5|--------------------------|--------------------------|
E6|-----0--------------------|-----0--------------------|  x4

And now chorus:

             Bm                           D
E1|-----------2----2---------|-----------2----2---------|
H2|-----------------3--------|-----------------3--------|
G3|---------4--------4-------|---------2--------2-------|
D4|--------------------------|-----0--------------------|
A5|-----2--------------------|--------------------------|
E6|--------------------------|--------------------------|

           A       E                     F#m
E1|-----------0--------0-----|-----------2----2---------|
H2|--------------------------|-----------------2--------|
G3|---------2--------1-------|---------2--------2-------|
D4|--------------------------|--------------------------|
A5|-----0--------------------|--------------------------|
E6|--------------0-----------|-----2--------------------|

              Bm                         D
E1|-----------2----2---------|-----------2----2---------|
H2|-----------------3--------|-----------------3--------|
G3|---------4--------4-------|---------2--------2-------|
D4|--------------------------|-----0--------------------|
A5|-----2--------------------|--------------------------|
E6|--------------------------|--------------------------|

               A                         A
E1|-----------0----0---------|--------------------------|
H2|-----------------2--------|--------------------------|
G3|---------2--------2-------|--------------------------|
D4|--------------------------|--------------------------|
A5|-----0--------------------|-----0--------------------|
E6|--------------------------|--------------------------| x 2

Intro: A, F#m, E, E x 2
---------------------------------------------------------
1st:
A                     F#m          E                   E
 Nie płacz Ewka bo tu miejsca brak na twe babskie łzy 
A                F#m        E                          E
 po ulicy miłość hula wiatr wśród rozbitych szyb 
A                    F#m         E                     E
 patrz poeci śliczni prawdy sens roztrwonili w grach 
A                        F#m E           
 w półlitrówkach pustych SOS wysyłają w świat          E

--------------------------------------------------------

Chorus:
       Hm   D                     A          E       F#m
Żegnam was już wiem nie załatwię wszystkich pilnych spraw
    Hm           D                 A         E
idę sam właśnie tam gdzie czekają mnie 
Tam przyjaciół kilku mam od lat , dla nich zawsze śpiewam dla nich gram 
jeszcze raz zegnam was nie spotkamy się
----------------------------------------------------------------
2nd:
Proza życia to przyjaźni kat pęka cienka nić 
telewizor meble mały fiat oto marzeń szczyt 
hej prorocy moi z gniewnych lat obrastacie w tłuszcz 
już was w swoje szpony dopadł szmal zdrada płynie z ust

Chorus x 2
Suggest correction
comments
print report bad tab
2 comments total.
0 reply
cornello 32 Sep 01, 2011 06:15 PM

Artist: Perfect
Song: Nie Płacz Ewka
Tunning: standard
Tab by: cornello

Now, enjoy the song:)

============================================================

Chords used as tab(you may play as well D DU UDU)


Verse:
A F#m
E1|-----------0----0---------|-----------2----2---------|
H2|-----------------2--------|-----------------2--------|
G3|---------2--------2-------|---------2--------2-------|
D4|--------------------------|--------------------------|
A5|-----0--------------------|--------------------------|
E6|--------------------------|-----2--------------------|

E E
E1|-----------0----0---------|-----------0----0---------|
H2|-----------------0--------|-----------------0--------|
G3|---------1--------1-------|---------1--------1-------|
D4|--------------------------|--------------------------|
A5|--------------------------|--------------------------|
E6|-----0--------------------|-----0--------------------|

Chorus:

Bm D
E1|-----------2----2---------|-----------2----2---------|
H2|-----------------3--------|-----------------3--------|
G3|---------4--------4-------|---------2--------2-------|
D4|--------------------------|-----0--------------------|
A5|-----2--------------------|--------------------------|
E6|--------------------------|--------------------------|

A E F#m
E1|-----------0--------0-----|-----------2----2---------|
H2|--------------------------|-----------------2--------|
G3|---------2--------1-------|---------2--------2-------|
D4|--------------------------|--------------------------|
A5|-----0--------------------|--------------------------|
E6|--------------0-----------|-----2--------------------|

Bm D
E1|-----------2----2---------|-----------2----2---------|
H2|-----------------3--------|-----------------3--------|
G3|---------4--------4-------|---------2--------2-------|
D4|--------------------------|-----0--------------------|
A5|-----2--------------------|--------------------------|
E6|--------------------------|--------------------------|

A A
E1|-----------0----0---------|--------------------------|
H2|-----------------2--------|--------------------------|
G3|---------2--------2-------|--------------------------|
D4|--------------------------|--------------------------|
A5|-----0--------------------|-----0--------------------|
E6|--------------------------|--------------------------|


=========================================================
Intro: A, F#m, E, E x 2
---------------------------------------------------------
1st:
A F#m E E
Nie płacz Ewka bo tu miejsca brak na twe babskie łzy
A F#m E E
po ulicy miłość hula wiatr wśród rozbitych szyb
A F#m E E
patrz poeci śliczni prawdy sens roztrwonili w grach
A F#m E E
w półlitrówkach pustych SOS wysyłają w świat

--------------------------------------------------------

Chorus:
Bm D A E F#m
Żegnam was już wiem nie załatwię wszystkich pilnych spraw
Bm D A E
idę sam właśnie tam gdzie czekają mnie
Tam przyjaciół kilku mam od lat , dla nich zawsze śpiewam dla nich gram
jeszcze raz zegnam was nie spotkamy się
------------------------------------------------------------
2nd:
Proza życia to przyjaźni kat pęka cienka nić
telewizor meble mały fiat oto marzeń szczyt
hej prorocy moi z gniewnych lat obrastacie w tłuszcz
już was w swoje szpony dopadł szmal zdrada płynie z ust

Chorus x 2

0 reply
Furky 10 Feb 07, 2016 05:48 AM, edited at 05:49 am

I think there should be E right after F#m in chorus :)
Bm D A E F#m
E D A E

guest
You may want to rate the tab now too:
select rating
Wanna post a correction for this tab? Suggest correction