Oops, an error
Loading. Please wait.

Niepokonani Tab

version 1
version 1

Whole song

Interactive

30,015 views 30 this week
2 commentsread comments
1 2 3 4 5
worth learning
x 3
add to favorites
launch autoscroll
font size
0
reset
how to read this tab
guitar tuner
Autoscroll
slow
fast
+/-
esc
set tempo
stop
Help us to improve Ultimate-Guitar.com Take our survey!
×
Author
#-----------------------------------------------------------------------------#
#-- File created with Instab - http://www.pconline.com/~smcarey/instab.html --#
#-----------------------------------------------------------------------------#
Tab by Filipgitar.....I just found it in internet
Perfect
Niepokonani
Intro:          

 rake h         h/A   G Fis 
    h  h/A      G   Fis

--10--10--9-----------------------sl--sl------------------------------------
--7---7---7---12--12--10--9--9--7-\-9-\-10--9---7---------------------------
--7---7---7---9---9---7---6--6--4-\-6-\-7---6------4------------------------
--9---9---9---9---9---7---6--6--4-\-6-\-7---6---------<7>-------------------
----------------------------------------------------------------------------
----------------------------------------------------------------------------
                                                                              

-----10--9--------------------10---10---10---9---sl--------2----------------
-----7---7---12--12--10----9-----8----9----7---7-\-5--3----2----------------
-----7---7---9---9---7-------------------------------------3----------------
-----9---9---9---9---7-------------------------------------4----------------
-----------------------------------------------------------4----------------
-----------------------------------------------------------2----------------
                                                                              

---------------------------3------------5-----------------------------------
------3--------3-----------3---3--3-----5--3--------2-----------------------
------4--------4-------4---4---4--4--------4--------3-----------------------
----4---4----4---4---------5---5--5--------5------4---4---------------------
--2--------0---------------5---5--5--------5--------------------------------
--------------------3------3---3--3--3-----3---2----------------------------
                                                                              

--10--10---9----------------------------------------------------------------
--7---7----7---12--12--10---------------------------------------------------
--7---7----7---9---9---7----------------------------------------------------
--9---9----9---9---9---7----------------------------------------------------
----------------------------------------------------------------------------
----------------------------------------------------------------------------
                                                                              

-------------7-----------7------------3------------5------------------------
-----------7---7-------7---7----------3---3--3-----5--3--------2------------
----------------------------------4---4---4--4--------4--------3------------
--------------------------------------5---5--5--------5------4---4----------
----sl-------------0------------------5---5--5--------5---------------------
--5-\-7------------------------3------3---3--3--3-----3---2-----------------
                                                                              

-------------------2----------2-----------0--------------3-------2----------
-------------------3----------3-----------0------3---2---3----0--0----------
-----4-----------2---2------4---4-------0---0----2---2---0----0--0----------
---4------h----0---------------------2-----------2---2---0--x---------------
-2------2--4-------------2-----------------------0---0---2--x---------------
---------------------------------------------------------3------------------
                                                                              

---0---0--0--0-----3---5---3---------sl---sl--------------------------------
---0---0--0--0-----4---6---4-------6-\-7--\-6-------------------------------
---2---2--2--2-----5---7---5------------------------------------------------
---2---2--2--2-----5---7---5------------------------------------------------
---0---0--0--0-----3---5---3------------------------------------------------
----------------------------------------------------------------------------
                                                                              

-----3---------3-----------12---12----12---12---------3------3-------2---2--
-----4---------4-------------------12---------12--------4----4-----3------3-
---4---4-----4---4------12--------------------------5-----5--5---4----------
-2---------0---------10--------------------------------------5--------------
--------------------------------------------------3----------3--2-----------
------------------------------------------------------------------------------
P                                                                             

-7---7---7---12--12--10----9-----8----9----7---7-\-5--3----2------------------
-7---7---7---9---9---7-------------------------------------3------------------
-9---9---9---9---9---7-------------------------------------4----------------
-----------------------------------------------------------4----------------
-----------------------------------------------------------2----------------
----------------------------------------------------------------------------
Suggest correction
Give kudos to tab author, rate the tab!
1 2 3 4 5
comments
print report bad tab
2 comments total.
0 reply
ascaechor 10 wrote on July 26 2014, 06:55 am

Clearly wrong.

0 reply
zygmuntlotos 628 wrote on September 16 2014, 04:14 am, edited at 04:15 am

Clearly wrong.

guest
You may want to rate the tab now too:
select rating
Please do not post tabs as comments. Select "correction" instead!