Oops, an error
Loading. Please wait.

Too Much To Say Goodbye Tab

180 views 1 this week
no commentswrite comment
1 2 3 4 5
please rate
add to favorites
launch autoscroll
font size
0
reset
how to read this tab
guitar tuner
Autoscroll
slow
fast
+/-
esc
set tempo
stop
Help us to improve Ultimate-Guitar.com Take our survey!
×
Author
-------------------------------------------------------------------------------
                             Too Much to say Goodbye - Perfect Gentlemen
-------------------------------------------------------------------------------
www.purevolume.com/perfectgentlemen


Tabbed by: Nathan A

Tuning: Standard

Intro

e|---0h1-1----0h1-1----0h1-1---|
B|-3-------3---------3-------1-|
G|--2-------3---------2------0-|
D|0----------3------0--------2-|
A|---------------------------3-|
E|-----------------------------|


e|000011111-000011111-000011111-000000000-|
B|333333333-333333333-333333333-111111111-|
G|222222222-333333333-222222222-000000000-|
D|000000000-333333333-000000000-333322222-|
A|------------------------------333333333-|
E|----------------------------------------|

e|000011111-000011111-111111111-----------|
B|333333333-333333333-111111111-----------|
G|222222222-333333333-222222222-----------|
D|000000000-333333333-333333333-----------|
A|----------111111111-333333333-3b-2b-3-2-|
E|--------------------111111111-----------|

Solo

e|0-1-0-1-0-1-5-6-5-6-5-6-0-1-3-1-3-5-3-1-0-1-0----|
B|----------------------------------------------3~-|
G|-------------------------------------------------|
D|-------------------------------------------------|
A|-------------------------------------------------|
E|-------------------------------------------------|

Verse

e|1-1-111111111-----------|
B|3-3-111111111-111111111-|
G|2-3-222222222-000000000-|
D|0-3-333333333-333322222-|
A|--1-333333333-333333333-|
E|----111111111-----------|

e|000011111-000011111-111111111---|
B|333333333-333333333-111111111-1-|
G|222222222-333333333-222222222-0-|
D|000000000-333333333-333333333-2-|
A|----------111111111-333333333-3-|
E|--------------------111111111---|

e|0000111111111111-11111111-----------|
B|3333333333333333-11111111-111111111-|
G|3333333333333333-22222222-000000000-|
D|3333333333333333-33333333-333322232-|
A|1111111111111111-33333333-333333333-|
E|-----------------11111111-----------|

Outro

e|555555555-333333333-111111111-111111111-|
B|777777777-555555555-333333333-111111111-|
G|777777777-555555555-333333333-222222222-|
D|777777777-555555555-333333333-333333333-|
A|555555555-333333333-111111111-333333333-|
E|------------------------------111111111-|

e|555555555-333333333-111111111-111111111-3-0h1-|
B|777777777-555555555-333333333-111111111-5-3---|
G|777777777-555555555-333333333-222222222-5-2---|
D|777777777-555555555-333333333-333333333-5-0---|
A|555555555-333333333-111111111-333333333-3-----|
E|------------------------------111111111-------|

Think that's right enjoy
Suggest correction
Give kudos to tab author, rate the tab!
1 2 3 4 5
comments
print report bad tab
guest
You may want to rate the tab now too:
select rating
Wanna post a correction for this tab? Suggest correction