Oops, an error
Loading. Please wait.

A Life Of Dying Tab

version 1
version 1

Acoustic

Whole song

531 views 3 this week
no commentswrite comment
1 2 3 4 5
please rate
add to favorites
launch autoscroll
font size
0
reset
how to read this tab
guitar tuner
Tab Pro tools
  • play this tab
  • loop segment
  • change instrument
  • show fretboard
  • metronome
×
Best way to learn
"A Life Of Dying"
Autoscroll
slow
fast
+/-
esc
set tempo
stop
Contributor
Difficulty
Tuning
novice
C G C F A D

                      ****MattRevenger's Tabs****

                     youtube.com/RevengerRecords




Artist: Perfect Like Me
Album: She's poison
Tuning: Drop C (C G C F a d)

Intro//Chiorus Repeat  End of intro/chorus
d-------------------!--------------------------2-----2-----------------|
a---0-0-0-0--000-0--!--000000--------------------0-----0---------------|
F---3-4-8-6--433/4--!--334488----------------1-----1-----1-------------|
C-------------------!--------------------------------------------------|
G-------------------!--------------------------------------------------|
C-------------------!--------------------------------------------------|


Second Guitar(Intro only)
e----------------|
h--0000000000000-|
G--4444444444444-|
D----------------|
A----------------|
D----------------|


Rythm Guitar Intro/Chorus
e------2--------!--2----------------------------------------------------------|
h------2--0-----!--0----------------------------------------------------------|
G---1--3--4-----!--1----------------------------------------------------------|
D---2--4--4-----!--2----------------------------------------------------------|
A---2--4--2-----!--2----------------------------------------------------------|
D---2--x--4-----!--2----------------------------------------------------------|


e----------------------2-------2-------------------------------------------|
h------------------------0---0---0-----------------------------------------|
G--------------------1-----1-------1---------------------------------------|
D--------------------------------------------------------------------------|
A--------------------------------------------------------------------------|
D--------------------------------------------------------------------------|

Verse/Bridge(same chords different rythm)
e-----2---------2--!--2-------------------------------------------------------|
h--0--2---0--0--2--!--0-------------------------------------------------------|
G--1--3---1--4--3--!--1-------------------------------------------------------|
D--2--4---2--4--4--!--2-------------------------------------------------------|
A--2--4---2--2--4--!--2-------------------------------------------------------|
D--2------0--------!--2-------------------------------------------------------|

e-----------------------------------------------------------------------------|
h-----------------------------------------------------------------------------|
G-----------------------------------------------------------------------------|
D---2--4-2-66--44--2--6--4--2--66-44------------------------------------------|
A---2--4-2-66--44--2--6--4--2--66-44------------------------------------------|
D---2--4-2-66--44--2--6--4--2--66-44------------------------------------------|


e-----------2------2--------2------------------------------------------------|
h---0---------0------0----0---0----------------------------------------------|
G---1-----1-----1------1--------1--------------------------------------------|
D---2------------------------------------------------------------------------|
A---2------------------------------------------------------------------------|
D---2------------------------------------------------------------------------|


Rythm Guitar Intro/Chorus
e------2--------!--2----------------------------------------------------------|
h------2--0-----!--0----------------------------------------------------------|
G---1--3--4-----!--1----------------------------------------------------------|
D---2--4--4-----!--2----------------------------------------------------------|
A---2--4--2-----!--2----------------------------------------------------------|
D---2--x--4-----!--2----------------------------------------------------------|

e-------------------------------------------------------------------------|
h--0----------------------------------------------------------------------|
G--1----------------------------------------------------------------------|
D--2----------------------------------------------------------------------|
A--2----------------------------------------------------------------------|
D--2----------------------------------------------------------------------|
comments
We did not receive enough feedback on this tab! Please rate:
print report bad tab
1 2 3 4 5
I want to post or [tab]
guest
You may want to rate the tab now too:
select rating
Please do not post tabs as comments. Select "correction" instead!