Oops, an error
Loading. Please wait.

A Life Of Dying Tab

version 1
version 1

Whole song

294 views 1 this week
no commentswrite comment
1 2 3 4 5
please rate
add to favorites
launch autoscroll
font size
0
reset
how to read this tab
guitar tuner
Autoscroll
slow
fast
+/-
esc
set tempo
stop
Help us to improve Ultimate-Guitar.com Take our survey!
×
Contributor
Difficulty
Tuning
novice
C G C F A D
                              ***MattRevenger's Tab***



Intro/Refrain

Rythm Guitar
d-------------------------------------------------|
a-------------------------------------------------|
f-------------------------------------------------|
C---0--2---4--------0----2---4--7-------0---------|
G---0--2---4--------0----2---4--7-------0let ring-|
C---0--2---4--------0----2---4--7-------0---------|

Lead Guitar
d--------9-------------------------9--------------|
a---9-10---12-10-9-9-9p10-----9-10---12-10-9999---|
f-------------------------9-----------------------|
C-------------------------------------------------|
G-------------------------------------------------|
C-------------------------------------------------|


d-------------9------------9--------9-|
a---9-10-9-10----9-10-9-10-----9-10---|
f-------------------------------------|
C-------------------------------------|
G-------------------------------------|
C-------------------------------------|


Harmony
d-------------------------|
a--------------10---------|
f---9--11-9-11------------|
C-------------------------|
G-------------------------|
C-------------------------|


Verse (Clean Guitar)
d------------------------|
a----7--7--7--------(7)--|
f----7--9--7--(11)--(9)--|
C----7--9--7--(11)--(9)--|
G----5--7--5--(9)---(7)--|
C------------------------|


Rythm Guitar
d-----------------------------------------|
a-----------------------------------------|
f-----------------------------------------|
C---00-00-00-22-22-22-00-00-00--44-22-22--|
G---00-00-00-22-22-22-00-00-00--44-22-22--|
C---00-00-00-22-22-22-00-00-00--44-22-22--|

Lead Guitar
           T     T     T           T      T
d----------------------------------------------------|
a---9h10--14-10-15--10-14-10--9h10-14-10-12-10-9h10--|
f----------------------------------------------------|
C----------------------------------------------------|
G----------------------------------------------------|
C----------------------------------------------------|



d-------------------------------------------|
a---9h10---9h10-9h10-9h10--9h10-------------|
f-------------------------------------------|
C--------------------------------------XXXX-|
G--------------------------------------XXXX-|
C--------------------------------------XXXX-|




Rythm Guitar
d-------------------------------------------------|
a-------------------------------------------------|
f-------------------------------------------------|
C---0--2---4--------0----2---4--7-------0---------|
G---0--2---4--------0----2---4--7-------0---------|let ring
C---0--2---4--------0----2---4--7-------0---------|

Lead Guitar
d--------9-------------------------9------------|
a---9-10---12-10-9-9-9p10-----9-10---12-10-9999-|
f-------------------------9---------------------|
C-----------------------------------------------|
G-----------------------------------------------|
C-----------------------------------------------|


d-------------9------------9--------9---------|
a---9-10-9-10----9-10-9-10-----9-10-----------|
f---------------------------------------------|
C---------------------------------------------|
G---------------------------------------------|
C---------------------------------------------|


Both Guitars
d---------------------------------------------|
a---------------------------------------------|
f---------------------------------------------|
C---00-00-00-22-22-22-00-00-00--44-22-22------|
G---00-00-00-22-22-22-00-00-00--44-22-22------|
C---00-00-00-22-22-22-00-00-00--44-22-22------|


Rythm Guitar
d---------------------------------------------|
a---------------------------------------------|
f---------------------------------------------|
C---00-00-00-22-22-22-00-00-00--44-22-22------|
G---00-00-00-22-22-22-00-00-00--44-22-22------|
C---00-00-00-22-22-22-00-00-00--44-22-22------|


Lead Guitar
           T     T     T           T      T
d----------------------------------------------------|
a---9h10--14-10-15--10-14-10--9h10-14-10-12-10-9h10--|
f----------------------------------------------------|
C----------------------------------------------------|
G----------------------------------------------------|
C----------------------------------------------------|



d--------------------------------|
a---9h10---9h10-9h10-9h10--9h10--|
f--------------------------------|
C--------------------------------|
G--------------------------------|
C--------------------------------|




Rythm Guitar
d-----------------------------------|
a-----------------------------------|
f-----------------------------------|
C---0--2---4--------0----2---4--7---|
G---0--2---4--------0----2---4--7---|
C---0--2---4--------0----2---4--7---|

Second Guitar
d--------9-------------------------9-------------|
a---9-10---12-10-9-9-9p10-----9-10---12-10-9999--|
f-------------------------9----------------------|
C------------------------------------------------|
G------------------------------------------------|
C------------------------------------------------|


d-------------9------------9--------9--|
a---9-10-9-10----9-10-9-10-----9-10----|
f--------------------------------------|
C--------------------------------------|
G--------------------------------------|
C--------------------------------------|

Bridge
                         2X
d-------------------------!-----------------|
a-------------------------!-----------------|
f-------------------------!-----------------|
C--7---2--0---4xxxx2xxxx--!------0----------|
G--7---2--0---4xxxx2xxxx--!------0----------|(let ring)
C--7---2--0---4xxxx2xxxx--!------0----------|


Rythm Guitar
d------------------------------------|
a------------------------------------|
f------------------------------------|
C---0--2---4--------0----2---4--7----|
G---0--2---4--------0----2---4--7----|
C---0--2---4--------0----2---4--7----|


Second Guitar
d--------9-------------------------9-------------|
a---9-10---12-10-9-9-9p10-----9-10---12-10-9999--|
f-------------------------9----------------------|
C------------------------------------------------|
G------------------------------------------------|
C------------------------------------------------|


d-------------9------------9--------9------|
a---9-10-9-10----9-10-9-10-----9-10--------|
f------------------------------------------|
C------------------------------------------|
G------------------------------------------|
C------------------------------------------|
comments
We did not receive enough feedback on this tab! Please rate:
print report bad tab
1 2 3 4 5
I want to post or [tab]
guest
You may want to rate the tab now too:
select rating
Please do not post tabs as comments. Select "correction" instead!