Oops, an error
Loading. Please wait.

Life Of Dying Bass

45 views 1 this week
no commentswrite comment
1 2 3 4 5
3 more votes to show rating
add to favorites
launch autoscroll
font size
0
reset
guitar tuner
×
Best way to learn
"Life Of Dying"
Autoscroll
slow
fast
+/-
esc
set tempo
stop
Author
Difficulty
----------------------------------|
----------------------------------|
----------------------------------|
----------------------------------|
-/6--1--3--5----1-----------------|


                     *** MattRevenger's Tab ***

Listen to the sung for strumming :)

G-------------------------------------|
D-------------------------------------|
A-------------------------------------|
E-------------------------------------|
B---1-3-1-5-3-----/6/0----------------|


-------------------------------------------|
-------------------------------------------|
-------------------------------------------|
---3---------------------------------------|
-----3-1---55-33-------1let ring-----------|


------------------------------|
------------------------------|
------------------------------|
------------------3-----------|
--1--3--5---1-3-5-------------|
Suggest correction
Give kudos to tab author, rate the tab!
1 2 3 4 5
comments
print report bad tab
guest
You may want to rate the tab now too:
select rating
Wanna post a correction for this tab? Suggest correction