Oops, an error
Loading. Please wait.

Marigold Tab

version 1
version 1

Whole song

  • Inspired by Misha Mansoor's playthrough - https://... Show more

Interactive

937 views 144 this week
no commentswrite comment
1 2 3 4 5
x 5
add to favorites
launch autoscroll
font size
0
reset
how to read this tab
guitar tuner
Autoscroll
slow
fast
+/-
esc
set tempo
stop
Help us to improve Ultimate-Guitar.com Take our survey!
×
Author
Difficulty
Tuning
intermediate
C G C F A D
[PART 1]

D|--------------------------------------------|--------------------------------------------|
A|--------------------------------------------|--------------------------------------------|
F|--------------------------------------------|--------------------------------------------|
C|--------------3--------7-----------3--------|--------------3--------7-----------3--------|
G|--------5--------5-----------5--------5-----|--------5--------5-----------5--------5-----|
C|--0--3-----7--------0-----0-----7--------7--|--0--3-----7--------0-----0-----7--------7--|

D|--------------------------------------------|----------------------------------------------------|
A|--------------------------------------------|----------------------------------------------------|
F|--------------------------------------------|----------------------------------------------------|
C|--------------5--------8-----------5--------|----------------7---------11-------------7----------|
G|--------7--------7-----------7--------7-----|---------10--------10------------10---------10------|
C|--5--8-----8--------5-----5-----8--------8--|--7--11------11--------7------7------11---------11--|

D|-----------------------------------------------------|-----------------------------------------------------|
A|-----------------------------------------------------|-----------------------------------------------------|
F|-----------------------------------------------------|-----------------------------------------------------|
C|---------------------------12------------------------|---------------------------12------------------------|
G|---------10-----12--10------------10-----12--10------|---------10-----12--10------------10-----12--10------|
C|--8--12------8----------8------8------8----------12--|--8--12------8----------8------8------8----------12--|

D|----------------------------------------------------|--------------------------------------------------|
A|----------------------------------------------------|--------------------------------------------------|
F|----------------------------------------------------|--------------------------------------------------|
C|----------------7---------11-------------7----------|--------------5-----8--5--------------3-----------|
G|---------10--------10------------10---------10------|--------7--------7--------7--4--5--7-----5--4--0--|
C|--7--11------11--------7------7------11---------11--|--5--8-----8--------------------------------------|


[PART 2]
                                                   t           t     t
D|--------------0----------------------0-------------------------------------|
A|-----3--------0-----6-------3--------0-----6-----------------13p9----------|
F|-----2--------------5-------2--------------5-----12/13\12p8--------12p8----|
C|--0--0--0--2-----3--3----0--0--0--2-----3--3--6----------------------------|
G|--0-----0--2-----3--3----0-----0--2-----3--3--6----------------------------|
C|--0-----0--2-----3--3----0-----0--2-----3--3--6----------------------------|

                                                   t     t           t
D|--------------0----------------------0------------------------------------|
A|-----3--------0-----6-------3--------0-----6------------------------------|
F|-----2--------------5-------2--------------5-----15p8---------------------|
C|--0--0--0--2-----3--3----0--0--0--2-----3--3--6--------17/18\17p8--15p8---|
G|--0-----0--2-----3--3----0-----0--2-----3--3--6---------------------------|
C|--0-----0--2-----3--3----0-----0--2-----3--3--6---------------------------|


[PART 3]

D|--------------------------------------|--------------------------------------|
A|--8-8-8-8--8-8-8-8--8-8-8-8--8-8-8-8--|--------------------------------------|
F|--7-7-7-7--7-7-7-7--7-7-7-7--7-7-7-7--|--6-6-6-6--6-6-6-6--6-6-6-6--6-6-6-6--|
C|--5-5-5-5--5-5-5-5--5-5-5-5--5-5-5-5--|--5-5-5-5--5-5-5-5--5-5-5-5--5-5-5-5--|
G|--5-5-5-5--5-5-5-5--5-5-5-5--5-5-5-5--|--3-3-3-3--3-3-3-3--3-3-3-3--3-3-3-3--|
C|--5-5-5-5--5-5-5-5--5-5-5-5--5-5-5-5--|--0-0-0-0--0-0-0-0--0-0-0-0--0-0-0-0--|

D|------------------------------------------------------|--------------------------------------|
A|------------------------------------------------------|--6-6-6-6--6-6-6-6--6-6-6-6--6-6-6-6--|
F|--10-10-10-10--10-10-10-10--10-10-10-10--10-10-10-10--|--5-5-5-5--5-5-5-5--5-5-5-5--5-5-5-5--|
C|--10-10-10-10--10-10-10-10--10-10-10-10--10-10-10-10--|--3-3-3-3--3-3-3-3--3-3-3-3--3-3-3-3--|
G|--8--8--8--8---8--8--8--8---8--8--8--8---8--8--8--8---|--3-3-3-3--3-3-3-3--3-3-3-3--3-3-3-3--|
C|--8--8--8--8---8--8--8--8---8--8--8--8---8--8--8--8---|--3-3-3-3--3-3-3-3--3-3-3-3--3-3-3-3--|

D|--------------------------------------|------------------------------------------------------|
A|--8-8-8-8--8-8-8-8--8-8-8-8--8-8-8-8--|------------------------------------------------------|
F|--7-7-7-7--7-7-7-7--7-7-7-7--7-7-7-7--|--10-10-10-10--10-10-10-10--10-10-10-10--10-10-10-10--|
C|--5-5-5-5--5-5-5-5--5-5-5-5--5-5-5-5--|--10-10-10-10--10-10-10-10--10-10-10-10--10-10-10-10--|
G|--5-5-5-5--5-5-5-5--5-5-5-5--5-5-5-5--|--8--8--8--8---8--8--8--8---8--8--8--8---8--8--8--8---|
C|--5-5-5-5--5-5-5-5--5-5-5-5--5-5-5-5--|--8--8--8--8---8--8--8--8---8--8--8--8---8--8--8--8---|


D|--------------------------------------|--------------------------------------|
A|--6-6-6-6--6-6-6-6--6-6-6-6--6-6-6-6--|--------------------------------------|
F|--5-5-5-5--5-5-5-5--5-5-5-5--5-5-5-5--|--------------------------------------|
C|--3-3-3-3--3-3-3-3--3-3-3-3--3-3-3-3--|--5-5-5-5--5-5-5-5--5-5-5-5--5-5-5-5--|
G|--3-3-3-3--3-3-3-3--3-3-3-3--3-3-3-3--|--3-3-3-3--3-3-3-3--3-3-3-3--3-3-3-3--|
C|--3-3-3-3--3-3-3-3--3-3-3-3--3-3-3-3--|--2-2-2-2--2-2-2-2--2-2-2-2--2-2-2-2--|


[PART 4]

D|--------------------------------------------|--------------------------------------------|
A|--------------------------------------------|--------------------------------------------|
F|--------------------------------------------|--------------------------------------------|
C|--------------3--------7-----------3--------|--------------3--------7-----------3--------|
G|--------5--------5-----------5--------5-----|--------5--------5-----------5--------5-----|
C|--0--3-----7--------0-----0-----7--------7--|--0--3-----7--------0-----0-----7--------7--|

D|--------------------------------------------|--------------------------------------------|
A|--------------------------------------------|--------------------------------------------|
F|--------------------------------------------|--------------------------------------------|
C|--------------2--------6-----------2--------|--------------2--------6-----------2--------|
G|--------5--------5-----------5--------5-----|--------5--------5-----------5--------5-----|
C|--2--6-----6--------2-----2-----6--------6--|--2--6-----6--------2-----2-----6--------6--|

D|--------------------------------------------|--------------------------------------------|
A|--------------------------------------------|--------------------------------------------|
F|--------------------------------------------|--------------------------------------------|
C|--------------5--------8-----------5--------|--------------3--------7-----------3--------|
G|--------7--------7-----------7--------7-----|--------5--------5-----------5--------5-----|
C|--5--8-----8--------5-----5-----8--------8--|--3--7-----7--------3-----3-----7--------7--|

D|-------------------------------------------------------|
A|-------------------------------------------------------|
F|-------------------------------------------------------|
C|-----------------8----------12-------------12----------|
G|---------10---------10-------------10----------10------|
C|--8--12------12----------8------8------12----------12--|

D|--------------------------------------------------------------|
A|--------------------------------------------------------------|
F|--------------------------------------------------------------|
C|-----------------7------11/15--11---------11------------------|
G|---------10---------10-------------12---------12--------------|
C|--7--11------11------------------------15---------15--12--11--|

D|--------------------------------------------|-----------------------------------------------------------|
A|--------------------------------------------|-----------------------------------------------------------|
F|--------------------------------------------|-----------------------------------------------------------|
C|--------------3--------7-----------3--------|------------------12------15--12---------------------------|
G|--------5--------5-----------5--------5-----|----------12----------12----------12\8------0--------5--8--|
C|--0--3-----7--------0-----0-----7--------7--|--12--15------12------------------------12-----3--7--------|

D|--------------------------------------------|--------------------------------------------------|
A|--------------------------------------------|--------------------------------------------------|
F|--------------------------------------------|--------------------------------------------------|
C|--------------2--------6-----------2--------|--------------2-----6/9--6--------6---------------|
G|--------5--------5-----------5--------5-----|--------5--------5----------7--5-----7--5---------|
C|--2--6-----6--------2-----2-----6--------6--|--2--6-----6--------------------------------9--6--|

D|--------------------------------------------|---------------------------------------------------|
A|--------------------------------------------|---------------------------------------------------|
F|--------------------------------------------|-----------------------7--------------------9--10--|
C|--------------5--------8-----------5--------|--------------3-----7-----7-----------7/12---------|
G|--------7--------7-----------7--------7-----|--------5--------5-----------8--5--8---------------|
C|--5--8-----8--------5-----5-----8--------8--|--3--7-----7---------------------------------------|

D|----------------------------------------------------------|
A|----------------------------------------------------------|
F|----------------------------------------------------------|
C|------------------11----------14--------------11----------|
G|----------13----------13--------------13----------13------|
C|--11--14------14----------11------11------14----------14--|

D|--------------------------------------------------------------|
A|----------------------------------------------------------14--|
F|------------------------------------------------------14------|
C|------------7--11/15--11----------------------11--15----------|
G|---------8----------------12--------------12------------------|
C|--7--11-----------------------15--11--15----------------------|


[PART 5]
                                                   t           t     t
D|--------------0----------------------0-----------------------------------|
A|-----3--------0-----6-------3--------0-----6-----------------13p9--------|
F|-----2--------------5-------2--------------5-----12/13\12p8--------12p8--|
C|--0--0--0--2-----3--3----0--0--0--2-----3--3--6--------------------------|
G|--0-----0--2-----3--3----0-----0--2-----3--3--6--------------------------|
C|--0-----0--2-----3--3----0-----0--2-----3--3--6--------------------------|

                                                   t     t           t
D|--------------0----------------------0-----------------------------------|
A|-----3--------0-------------3--------0-----6-----------------------------|
F|-----2-----------10--10-----2--------------5-----15p8--------------------|
C|--0--0--0--2-----10--10--0--0--0--2-----3--3--6--------17/18\17p8--15p8--|
G|--0-----0--2-----8---8---0-----0--2-----3--3--6--------------------------|
C|--0-----0--2-----8---8---0-----0--2-----3--3--6--------------------------|


[PART 6]
[PLAY 2x]

D|--------------------------------------|--------------------------------------|
A|--8-8-8-8--8-8-8-8--8-8-8-8--8-8-8-8--|--------------------------------------|
F|--7-7-7-7--7-7-7-7--7-7-7-7--7-7-7-7--|--6-6-6-6--6-6-6-6--6-6-6-6--6-6-6-6--|
C|--5-5-5-5--5-5-5-5--5-5-5-5--5-5-5-5--|--5-5-5-5--5-5-5-5--5-5-5-5--5-5-5-5--|
G|--5-5-5-5--5-5-5-5--5-5-5-5--5-5-5-5--|--3-3-3-3--3-3-3-3--3-3-3-3--3-3-3-3--|
C|--5-5-5-5--5-5-5-5--5-5-5-5--5-5-5-5--|--0-0-0-0--0-0-0-0--0-0-0-0--0-0-0-0--|

D|------------------------------------------------------|--------------------------------------|
A|------------------------------------------------------|--6-6-6-6--6-6-6-6--6-6-6-6--6-6-6-6--|
F|--10-10-10-10--10-10-10-10--10-10-10-10--10-10-10-10--|--5-5-5-5--5-5-5-5--5-5-5-5--5-5-5-5--|
C|--10-10-10-10--10-10-10-10--10-10-10-10--10-10-10-10--|--3-3-3-3--3-3-3-3--3-3-3-3--3-3-3-3--|
G|--8--8--8--8---8--8--8--8---8--8--8--8---8--8--8--8---|--3-3-3-3--3-3-3-3--3-3-3-3--3-3-3-3--|
C|--8--8--8--8---8--8--8--8---8--8--8--8---8--8--8--8---|--3-3-3-3--3-3-3-3--3-3-3-3--3-3-3-3--|

D|--------------------------------------|------------------------------------------------------|
A|--8-8-8-8--8-8-8-8--8-8-8-8--8-8-8-8--|------------------------------------------------------|
F|--7-7-7-7--7-7-7-7--7-7-7-7--7-7-7-7--|--10-10-10-10--10-10-10-10--10-10-10-10--10-10-10-10--|
C|--5-5-5-5--5-5-5-5--5-5-5-5--5-5-5-5--|--10-10-10-10--10-10-10-10--10-10-10-10--10-10-10-10--|
G|--5-5-5-5--5-5-5-5--5-5-5-5--5-5-5-5--|--8--8--8--8---8--8--8--8---8--8--8--8---8--8--8--8---|
C|--5-5-5-5--5-5-5-5--5-5-5-5--5-5-5-5--|--8--8--8--8---8--8--8--8---8--8--8--8---8--8--8--8---|


D|--------------------------------------|--------------------------------------|
A|--6-6-6-6--6-6-6-6--6-6-6-6--6-6-6-6--|--------------------------------------|
F|--5-5-5-5--5-5-5-5--5-5-5-5--5-5-5-5--|--------------------------------------|
C|--3-3-3-3--3-3-3-3--3-3-3-3--3-3-3-3--|--5-5-5-5--5-5-5-5--5-5-5-5--5-5-5-5--|
G|--3-3-3-3--3-3-3-3--3-3-3-3--3-3-3-3--|--3-3-3-3--3-3-3-3--3-3-3-3--3-3-3-3--|
C|--3-3-3-3--3-3-3-3--3-3-3-3--3-3-3-3--|--2-2-2-2--2-2-2-2--2-2-2-2--2-2-2-2--|

[PART 6 - after 2nd repetition finish with:]

D|-----|
A|-----|
F|-----|
C|--0--|
G|--0--|
C|--0--|


[PART 7]

D|------------------------------------------------------------------------|
A|------------------------------------------------------------------------|
F|------------------------------------------------------------------------|
C|--------------------------------------------6h7p6-----6-----------------|
G|--------5-----------5-----------5--5--7--8---------8--------------7--8--|
C|--0--0-----0--2--0-----0--3--0---------------------------7--6--0--------|

D|------------------------0----------------------------------------0------|
A|------------------------------------------------------------------------|
F|---------7----------10----------------------------------------------10--|
C|------8---------12---------14--14-----7h8p7------7--------10/11---------|
G|--10--------11-------------12--12------------10-------------------------|
C|---------------------------11--11--7----------------8--7----------------|

D|----------------------------------------------0--------------------------------------|
A|---------------------------3---------------------------------8---8---8---8---8---8---|
F|---------------------------2------------------------------7--7---7---7---7---7---7---|
C|--------8--------7---------0------------5--7-----5--7/10-----10--10--10--10--10--10--|
G|--------5--------3---------0---5--7--8-----------------------------------------------|
C|--5-5-5-5--3-3-3-3---0-0-0-0---------------------------------------------------------|

D|--------------------------------------0----------------------------------------|
A|--------------------------------6--6-------------------------------------------|
F|--------------7--7--------7--7----------9--------------------------------------|
C|--5--5--8--8--------6--6----------------7-----------------7------11/14-11------|
G|----------------------------------------7---------10---------10------------12--|
C|----------------------------------------7--7--11------11-----------------------|


[PART 8]
                                                   t           t     t
D|--------------0----------------------0-----------------------------------|
A|-----3--------0-----6-------3--------0-----6-----------------13p9--------|
F|-----2--------------5-------2--------------5-----12/13\12p8--------12p8--|
C|--0--0--0--2-----3--3----0--0--0--2-----3--3--6--------------------------|
G|--0-----0--2-----3--3----0-----0--2-----3--3--6--------------------------|
C|--0-----0--2-----3--3----0-----0--2-----3--3--6--------------------------|

                                                   t     t           t
D|--------------0----------------------0---------------------------------------|
A|-----3--------0-------------3--------0-----6---------------------------------|
F|-----2-----------10--10-----2--------------5-----15p8------------------------|
C|--0--0--0--2-----10--10--0--0--0--2-----3--3--6--------17/18\17p8--15p8--5\--|
G|--0-----0--2-----8---8---0-----0--2-----3--3--6--------------------------5\--|
C|--0-----0--2-----8---8---0-----0--2-----3--3--6--------------------------5\--|


[PART 9]
[PLAY 2x]

D|---------------------------------10------------------------------|
A|--------------------------11---------11------10--11--------------|
F|------------------12---------12----------12----------12----------|
C|----------12----------12---------------------------------12------|
G|--10--13------13---------------------------------------------13--|
C|-----------------------------------------------------------------|

D|------------------------------10--------------------|
A|--------------------6--8--10------10--6/5-----------|
F|--------------7----------------------------7--------|
C|--------7--------7----------------------------7-----|
G|--5--8-----8-------------------------------------8--|
C|----------------------------------------------------|

D|--------------------------------------------------------10------|
A|----------------------------------------10--11--13----------13--|
F|------------------------------------10--------------10----------|
C|----------------8-----10--8--10/12------------------------------|
G|-------------8-----8--------------------------------------------|
C|--8--10--12-----------------------------------------------------|

D|---------------------------------------------------------------|
A|---------------------------------------------------------------|
F|------------------------10--12--14--10--14------10-------------|
C|--------------------10----------------------10------10---------|
G|---------8--10--12--------------------------------------12--8--|
C|--7--10--------------------------------------------------------|

D|----------------------------------10------------------------------|
A|--------------------------11----------11------10--11--------------|
F|------------------12----------12----------12----------12------12--|
C|----------12----------12----------------------------------12------|
G|--10--13------13--------------------------------------------------|
C|------------------------------------------------------------------|

D|-----------------------------------------------------------------|
A|-----------------------------------------------------------------|
F|---------------------------------14------15--17--19--15----------|
C|-------------------------15----------15------------------15------|
G|----------13------15/17------17------------------------------17--|
C|--12--15------15-------------------------------------------------|

D|----------------------------------------------------------|
A|----------------------------------------------------------|
F|-----------------------------10--12--14--10---------------|
C|----------------7-----10--7------------------10\7---------|
G|---------8---------8-------------------------------8------|
C|--7--10-----10----------------------------------------10--|

D|-----------------------------------------------------------------|
A|-------------------------------------------------------------13--|
F|------------------10h12p10-------------------------------12------|
C|--------------10------------10-----------------------14----------|
G|----------10--------------------10-----------10--15--------------|
C|--10--14----------------------------10---14----------------------|


[PART 9 - after 2nd repetition finish with:]

D|---------|
A|--/15~~--|
F|---------|
C|---------|
G|---------|
C|---------|

*********************************

| h   Hammer-on
| p   Pull-off
| t   Tapping
| /   Slide up
| \   Slide down
| ~   Vibrato

*********************************
Suggest correction
comments
print report bad tab
guest
You may want to rate the tab now too:
select rating
Wanna post a correction for this tab? Suggest correction