Oops, an error
Loading. Please wait.

Scarlet bass

version 1
version 1

Whole song

Interactive

595 views 15 this week
no commentswrite comment
1 2 3 4 5
3 more votes to show rating
add to favorites
×
Save as Personal and add changes to this tab that will be seen only by you. Learn more ›
×
You can save this tab as Personal to edit and correct it or add notes. All changes will be seen only by you. Learn more »
launch autoscroll
font size
0
reset
guitar tuner
edit
Autoscroll
slow
fast
+/-
esc
set tempo
stop
Title: Scarlet
Artist: Periphery
Album: Periphery II: This Time It's Personal
Tuning: Drop C (C G C F)
Tab Author: Pearce Hamblin (The Bass Diaries)

  [Intro]
F|---------------------------------|---------------------------------|---------------------------------|
C|---------------------------------|---------------------------------|---------------------------------|
G|---------------------------------|---------------------------------|---------------------------------|
C|-----------------------------4---|-----4---4---4---4---4---4---4---|-4---4---4---4---4---4---4---4---|


F|---------------------------------|---------------------------------|---------------------------------|
C|---------------------------------|---------------------------------|---------------------------------|
G|---------------------------------|-----------------0---0---0-------|---------------------------------|
C|-----4---4---4---4---4---4---4---|-4---4---4---4---------------0---|-----0---0---0---0---0---0---0---|


F|---------------------------------|---------------------------------|---------------------------------|
C|---------------------------------|---------------------------------|---------------------------------|
G|---------------------------------|---------------------------------|---------------------------------|
C|-0---0---0---0---0---0---0---0---|-----0---0---0-------0---0---0---|-0---0---0---0---0---2---2---4---|

  [Verse 1]
F|---------------------------------|---------------------------------|---------------------------------|
C|---------------------------------|---------------------------------|---------------------------------|
G|---------------------------------|---------------------------------|---------------------------------|
C|-----4---4---4---4---4---4---4---|-4---4---4---4---4---4---4---4---|-----4---4---4---4---4---4---4---|


F|---------------------------------|---------------------------------|---------------------------------|
C|---------------------------------|---------------------------------|---------------------------------|
G|---------------------------------|---------------------------------|---------------------------------|
C|-4---4---4---6---7---7---7---0---|-----0---0---0---0---0---0---0---|-0---0---0---0---0---0---0---0---|


F|---------------------------------|---------------------------------|---------------------------------|
C|---------------------------------|---------------------------------|---------------------------------|
G|---------------------------------|---------------------------------|---------------------------------|
C|-----0---0---0-------0---0---0---|-0---0---0---0---0---0---0---0---|-----0---0---4-------4---4---4---|


F|---------------------------------|---------------------------------|---------------------------------|
C|---------------------------------|---------------------------------|---------------------------------|
G|---------------------------------|---------------------------------|---------------------------------|
C|-----4---4---4-------4---4---4---|-----4---4---4-------4---4---4---|-----4---4---4-------4---4---0---|


F|---------------------------------|---------------------------------|---------------------------------|
C|---------------------------------|---------------------------------|---------------------------------|
G|---------------------------------|---------------------------------|---------------------------------|
C|-----0---0---4-------4---4---4---|-----4---4---4-------4---4---4---|-----4---4---4-------4---4---4---|

                                    [Pre-Chorus 1]
F|---------------------------------|---------------------------------|---------------------------------|
C|---------------------------------|---------------------------------|---------------------------------|
G|-------------------------4---2---|-----2---2-----------------------|---------------------------------|
C|-----4---4---4-------4-----------|-------------0-------0---0---0---|-----0---0---0-------0---0---0---|


F|---------------------------------|---------------------------------|---------------------------------|
C|---------------------------------|---------------------------------|---------------------------------|
G|---------------------------------|-----------------------------2---|-----2---2-----------------------|
C|-----0---0---0-------0---0---0---|-----0---0---0-------0---0-------|-------------0-------0---0---0---|


F|---------------------------------|---------------------------------|---------------------------------|
C|---------------------------------|---------------------------------|---------------------------------|
G|---------------------------------|---------------------------------|-----------------------------2---|
C|-----0---0---0-------0---0---0---|-----0---0---0-------0---0---0---|-----0---0---0-------0---0-------|

                                                                      [Chorus 1]
F|---------------------------------|---------------------------------|---------------------------------|
C|---------------------------------|---------------------------------|---------------------------------|
G|-----2---2-------2-----------2---|-------------2-------2---2-------|---------------------------------|
C|---------------------------------|-----------------------------4---|-----4---4-------4-----------2---|


F|---------------------------------|---------------------------------|---------------------------------|
C|---------------------------------|---------------------------------|-----------------2---4---6-------|
G|---------------------------------|---------------------4-----------|-4---------------------------5---|
C|-------------2-------7---7---7---|-----7---7---0-----------0---0---|-----0---0---0-------------------|


F|---------------------------------|---------------------------------|---------------------------------|
C|---------------------------------|---------------------------------|---------------------------------|
G|---------------------------------|---------------------0-------2---|-----2---2-------2-----------2---|
C|-----0-------0---0---0---0---2---|-----2---2---2---2---------------|---------------------------------|


F|---------------------------------|---------------------------------|---------------------------------|
C|---------------------------------|---------------------------------|---------------------------------|
G|-------------2-------4---5-------|---------------------------------|---------------------------------|
C|-----------------------------4---|-----4---4-------4-----------2---|-------------2-------7---7---7---|


F|---------------------------------|---------------------------------|---------------------------------|
C|---------------------------------|-----------------2---4---6-------|---------------------------------|
G|---------------------4-----------|-4---------------------------5---|---------------------------------|
C|-----7---7---0-----------0---0---|-----0---0---0-------------------|-----0-------0---0---0---0---2---|

                                    [Post-Chorus 1]
F|---------------------------------|---------------------------------|---------------------------------|
C|---------------------------------|---------------------------------|---------------------------------|
G|---------------------------------|---------------------------------|---------------------------------|
C|-----2---2---2---2---2---2---4---|-----4---4---4---4---4---4---4---|-4---4---4---4---4---4---4---4---|


F|---------------------------------|---------------------------------|---------------------------------|
C|---------------------------------|---------------------------------|---------------------------------|
G|---------------------------------|---------------------------------|---------------------------------|
C|-----4---4---4---4---4---4---4---|-4---4---4---4---7---7---7---0---|-----0---0---0---0---0---0---2---|


F|---------------------------------|---------------------------------|---------------------------------|
C|---------------------------------|---------------------------------|---------------------------------|
G|---------------------------------|---------------------------------|---------------------------------|
C|-0---0---0---0---0---0---0---0---|-----0---0---0---0---0---0---0---|-0---0---0---0---0---2---2---4---|

  [Verse 2]
F|---------------------------------|---------------------------------|---------------------------------|
C|---------------------------------|---------------------------------|---------------------------------|
G|---------------------------------|---------------------------------|---------------------------------|
C|-----4---4---4---4---4---4---4---|-4---4---4---4---4---4---4---4---|-4---4---4---4-------4---4---4---|


F|---------------------------------|---------------------------------|---------------------------------|
C|---------------------------------|---------------------------------|---------------------------------|
G|---------------------------------|---------------------------------|---------------------------------|
C|-4---4---4---6---7---7---7---0---|-----0---0---0---0---0---0---0---|-0---0---0---0---0---0---0---0---|


F|---------------------------------|---------------------------------|---------------------------------|
C|---------------------------------|---------------------------------|---------------------------------|
G|---------------------------------|---------------------------------|---------------------------------|
C|-----0-------0-------0---0---0---|-0---0---0---0---0---0---0---0---|-----0---0---4-------4---4---4---|


F|---------------------------------|---------------------------------|---------------------------------|
C|---------------------------------|---------------------------------|---------------------------------|
G|---------------------------------|---------------------------------|---------------------------------|
C|-----4---4---4-------4---4---4---|-----4---4---4-------4---4---4---|-----4---4---4-------4---4---0---|


F|---------------------------------|---------------------------------|---------------------------------|
C|---------------------------------|---------------------------------|---------------------------------|
G|---------------------------------|---------------------------------|---------------------------------|
C|-----0---0---4-------4---4---4---|-----4---4---4-------4---4---4---|-----4---4---4-------4---4---4---|

                                                                      [Pre-Chorus 2]
F|---------------------------------|---------------------------------|---------------------------------|
C|---------------------------------|---------------------------------|---------------------------------|
G|-----------------------------2---|-----2---2-----------------------|---------------------------------|
C|-----4---4---4-------4---4-------|-------------0-------0---0---0---|-----0---0---0-------0---0---0---|


F|---------------------------------|---------------------------------|---------------------------------|
C|---------------------------------|---------------------------------|---------------------------------|
G|---------------------------------|-----------------------------2---|-----2---2-----------------------|
C|-----0---0---0-------0---0---0---|-----0---0---0-------0---0-------|-------------0-------0---0---0---|


F|---------------------------------|---------------------------------|---------------------------------|
C|---------------------------------|---------------------------------|---------------------------------|
G|---------------------------------|---------------------------------|-----------------------------2---|
C|-----0---0---0-------0---0---0---|-----0---0---0-------0---0---0---|-----0---0---0-------0---0-------|

                                                                      [Chorus 2]
F|---------------------------------|---------------------------------|---------------------------------|
C|---------------------------------|---------------------------------|---------------------------------|
G|-----2---2-------2-----------2---|-------------2-------2---2-------|---------------------------------|
C|---------------------------------|-----------------------------4---|-----4---4-------4-----------2---|


F|---------------------------------|---------------------------------|---------------------------------|
C|---------------------------------|---------------------------------|-----------------2---4---6-------|
G|---------------------------------|---------------------4-----------|-4---------------------------5---|
C|-------------7-------7---7---0---|-----0---0---0-----------0---0---|-----0---0---0-------------------|


F|---------------------------------|---------------------------------|---------------------------------|
C|---------------------------------|---------------------------------|---------------------------------|
G|---------------------------------|---------------------0-------2---|-----2---2-------2-----------2---|
C|-----0-------0---0---0---0---2---|-----2---2---2---2---------------|---------------------------------|


F|---------------------------------|---------------------------------|---------------------------------|
C|---------------------------------|---------------------------------|---------------------------------|
G|-------------2-------4---5-------|---------------------------------|---------------------------------|
C|-----------------------------4---|-----4---4-------4---7---4---2---|-----2---2---2---2---7---7---0---|


F|---------------------------------|---------------------------------|---------------------------------|
C|---------------------------------|-----------------2---4---6-------|---------------------------------|
G|---------------------4-----------|-4---------------------------5---|---------------------------------|
C|-----0-------0-----------0---0---|-----0---0---0-------------------|-----0-------0---0---0---0---2---|

                                    [Bridge]
F|---------------------------------|---------------------------------|---------------------------------|
C|---------------------------------|---------------------------------|---------------------------------|
G|---------------------------------|---------------------------------|---------------------------------|
C|-----2---2---2---2---2---2---5---|-----5---5---5-------------------|-----------------------------9---|


F|---------------------------------|---------------------------------|---------------------------------|
C|---------------------------------|---------------------------------|---------------------------------|
G|---------------------------------|---------------------------------|---------------------------------|
C|-----0-----------------------0---|-2---0-----------------------5---|-----5---5---5-------0-----------|


F|---------------------------------|---------------------------------|---------------------------------|
C|---------------------------------|---------------------------------|---------------------------------|
G|---------------------------------|---------------------------------|---------------------------------|
C|-----------------------------0---|---------0---0---0---0---0---2---|-2---2---2---2---2---2---2---5---|


F|---------------------------------|---------------------------------|---------------------------------|
C|---------------------------------|---------------------------------|---------------------------------|
G|---------------------------------|-----------------------------2---|-----2---2---2---2---2---2-------|
C|-----5---5---5-------5---5---5---|-5---5---5---5---5---5---5-------|-----------------------------0---|


F|---------------------------------|---------------------------------|---------------------------------|
C|---------------------------------|---------------------------------|---------------------------------|
G|---------------------------------|---------------------------------|---------------------------------|
C|-2-------2---2---2---2---0---5---|-----5---5---5-------5---5---5---|-5---5---5---5---5---5---5---0---|


F|---------------------------------|---------------------------------|---------------------------------|
C|---------------------------------|---------------------------------|---------------------------------|
G|---------------------------------|---------------------------------|---------------------------------|
C|-----0---0---0---0---0---0---2---|-----2---2---2---2---4-------5---|-5-------------------------------|

                                    [Instrumental]
F|---------------------------------|---------------------------------|---------------------------------|
C|---------------------------------|---------------------------------|---------------------------------|
G|---------------------------------|---------------------------------|---------------------------------|
C|-----5---5---5---5---5---5---0---|-----0---0-------0---0-------4---|-----4---4-------4---4-------2---|


F|---------------------------------|---------------------------------|---------------------------------|
C|---------------------------------|---------------------------------|---------------------------------|
G|---------------------------------|---------------------------------|---------------------------------|
C|-----2---2-------2---2-------2---|-----2---2-------2---2-------0---|-----0---0-------0---0-------4---|


F|---------------------------------|---------------------------------|---------------------------------|
C|---------------------------------|---------------------------------|---------------------------------|
G|---------------------------------|---------------------------------|---------------------------------|
C|-----4---4-------4---4-------2---|-----2---2-------2---2-------2---|-----2---2---7-------7---7---0---|


F|---------------------------------|---------------------------------|-----------------------------------|
C|---------------------------------|---------------------------------|-----------------------------------|
G|---------------------------------|---------------------------------|-----------------------------------|
C|-----0---0-------0---0-------4---|-----4---4---4---4---4-------2---|-----2---2-------2--2--2-------2---|


F|---------------------------------|---------------------------------|---------------------------------|
C|---------------------------------|---------------------------------|---------------------------------|
G|---------------------------------|---------------------------------|---------------------------------|
C|-----2---2-------2---2-------0---|-----0---0-------0---0-------4---|-4---4---4-------4---4---4---3---|

                                                                      [Interlude]
F|---------------------------------|---------------------------------|--------|--------|
C|---------------------------------|---------------------------------|--------|--------|
G|---------------------------------|---------------------------------|--------|--------|
C|-----3---3---3---3---3---3---3---|-3---3---3---3---3---3---3---4---|--------|--------|


F|--------|--------|--------|--------|--------|--------|--------|--------|--------|
C|--------|--------|--------|--------|--------|--------|--------|--------|--------|
G|--------|--------|--------|--------|--------|--------|--------|--------|--------|
C|--------|--------|--------|--------|--------|--------|--------|--------|--------|


F|--------|--------|--------|--------|---------------------------------|---------------------------------|
C|--------|--------|--------|--------|---------------------------------|---------------------------------|
G|--------|--------|--------|--------|---------------------------------|---------------------------------|
C|--------|--------|--------|--------|---------------------2---2---4---|-----4---4---4---4---4---4---4---|


F|---------------------------------|---------------------------------|---------------------------------|
C|---------------------------------|---------------------------------|---------------------------------|
G|---------------------------------|---------------------------------|---------------------------------|
C|-4---4---4---4---4---4---4---4---|-4---4---4---4---4---4---4---4---|-4---4---4---4---7---7---7---0---|


F|---------------------------------|---------------------------------|---------------------------------|
C|---------------------------------|---------------------------------|---------------------------------|
G|---------------------------------|---------------------------------|---------------------------------|
C|-----0---0---0---0---0---0---0---|-0---0---0---0---0---0---0---0---|-----0---0---0-------0---0---0---|

                                    [Verse 3]
F|---------------------------------|---------------------------------|---------------------------------|
C|---------------------------------|---------------------------------|---------------------------------|
G|---------------------------------|---------------------------------|---------------------------------|
C|-0---0---0---0---0---2---2---4---|-----4---4---4---4---4---4---4---|-4---4---4---4---4---4---4---4---|


F|---------------------------------|---------------------------------|---------------------------------|
C|---------------------------------|---------------------------------|---------------------------------|
G|---------------------------------|---------------------------------|---------------------------------|
C|-----4---4---4-------4---4---4---|-4---4---4---6---7---7---9---0---|-----0---0---0---0---0---0---0---|


F|---------------------------------|---------------------------------|---------------------------------|
C|---------------------------------|---------------------------------|---------------------------------|
G|---------------------------------|---------------------------------|-5-----------------------5---2---|
C|-0---0---0---0---0---0---0---0---|-----0---0---0-------0---0---0---|-----0---0---0---0---0-----------|

                                                                      [Chorus 3/Outro]
F|---------------------------------|---------------------------------|---------------------------------|
C|---------------------------------|---------------------------------|---------------------------------|
G|-----2---2-------2-----------2---|-----2---2---2-------4---5-------|---------------------------------|
C|---------------------------------|-----------------------------4---|-----4---4-------4---0---4---2---|


F|---------------------------------|---------------------------------|---------------------------------|
C|---------------------------------|---------------------------------|-----------------2---4---6-------|
G|---------------------------------|---------------------4-----------|-4---------------------------5---|
C|-----2---2---2---2---7---7---7---|-----7---7---0-----------0---0---|-----0---0---0-------------------|


F|---------------------------------|---------------------------------|---------------------------------|
C|---------------------------------|---------------------------------|---------------------------------|
G|-----------------5-------5-------|---------------------0-------2---|-----2---2-------2---4---5---4---|
C|-----0-------0-------0-------2---|-----2---2---2---2---------------|---------------------------------|


F|---------------------------------|---------------------------------|---------------------------------|
C|---------------------2---4-------|---------------------------------|---------------------------------|
G|-2---4---5---4---5---------------|---------------------0-----------|---------------------------------|
C|-----------------------------4---|-----4---4-------4-------4---2---|-----2---2---2---2---7---7---7---|


F|---------------------------------|---------------------------------|---------------------------------|
C|---------------------------------|-----------------2---4---6-------|---------------------------------|
G|---------------------4-----------|-4-----------0---------------5---|-------------5-------------------|
C|-----7---7---0-----------0---0---|-----0---0-----------------------|-----0-----------0---0---0---2---|


F|---------------------------------|
C|---------------------------------|
G|---------------------------------|
C|-----2---2---2---2---2---2---5---|


            
            
Suggest correction
Creating personal tab
Creating personal tab
You can edit any tab online and save it as your Personal.

You can edit, replace or remove any tab part or add personal notes – all changes will be seen only by you.

Personal tabs can be accessed anytime from any device, even offline.
Learn more »
Give kudos to tab author, rate the tab!
1 2 3 4 5
comments
print report bad tab
guest
You may want to rate the tab now too:
select rating
Wanna post a correction for this tab? Suggest correction