Oops, an error
Loading. Please wait.

Teakwood Betz Tab

version 2
version 2

Whole song

1,806 views 1 this week
no commentswrite comment
1 2 3 4 5
3 more votes to show rating
add to favorites
launch autoscroll
font size
0
reset
how to read this tab
guitar tuner
Autoscroll
slow
fast
+/-
esc
set tempo
stop
Help us to improve Ultimate-Guitar.com Take our survey!
×
Author
Difficulty
intermediate
-------------------------------------------------------------------------------
                             Teakwood Betz - Perpetual Groove
-------------------------------------------------------------------------------
Tabbed by: Geoffrey Cohen
Email:Laxer3232@gmail.com

One of my favorite songs by one of my favorite bands

Tuning:eadgbe

Intro bass riff
e|---------------------------------|
B|---------------------------------|
G|---------------------------------|
D|---------------------------------|
A|----9----------12----------7-----|
E|7-7--7---10-10----10---5-5---5---|
figure out strumming pattern starts at 1:11
e|---------------------------|
B|12-----14---12---10---5----|
G|---------------------------|
D|9------11---9----7----2----|
A|---------------------------|
E|---------------------------|

e|-----------------------------------------------------------|
B|7-7h11p7--------5h7p5-------5h7p5---------5h7p5------------|
G|7--------9-7--7-------7---7-------7----7--------7----------| repeat
D|9-----------------------7-----------7--------------7--7-9--|
A|-----------------------------------------------------------|
E|-----------------------------------------------------------|

e|9h10p9------------9h10p9-----------9h10p9------------9h10p9-------------|
B|-------12-10-10-----------10---------------10----------------10---------|
G|-------------------------------9-9------------9-9---------------9-9-11--|
D|------------------------------------------------------------------------|
A|------------------------------------------------------------------------|
E|------------------------------------------------------------------------|

e|--------------------------------------------------|
B|--------------------------------------------------|
G|--------------------------------------------------|
D|------7-----------7----------7-----7-7------------|
A|--7h9----9----7h9---9----7h9---9---7-7------------|
E|7-----------7----------7-----------5-5--etc-------|

e|------------------------------------------------------------------|
B|15-15-14-14----------------15-15-14-14----------------------------|
G|-------------14-14-11-11---------------14-14-11-11-9-9-9-etc------|
D|------------------------------------------------------------------|
A|------------------------------------------------------------------|
E|------------------------------------------------------------------|

Those were all the riffs i found tell me if i'm missing anything. Enjoy


| /  slide up
| \  slide down
| h  hammer-on
| p  pull-off
| ~  vibrato
| +  harmonic
| x  Mute note
===============================================================================
Suggest correction
Give kudos to tab author, rate the tab!
1 2 3 4 5
comments
print report bad tab
guest
You may want to rate the tab now too:
select rating
Wanna post a correction for this tab? Suggest correction