Oops, an error
Loading. Please wait.

Three Weeks Tab

7,747 views 15 this week
no commentswrite comment
1 2 3 4 5
please rate
add to favorites
launch autoscroll
font size
0
reset
how to read this tab
guitar tuner
Autoscroll
slow
fast
+/-
esc
set tempo
stop
Help us to improve Ultimate-Guitar.com Take our survey!
×
Difficulty
Tuning
intermediate
E A D G B E
Three Weeks
Perpetual Groove
      Tabbed by:Rich

     Here you go Three Weeks by Pgroove.  It kicks ass.  n isn't that hard either.  
are some parts that is improv n werid picking so just use the tab as a general guide there.

Standard tuning (EADGBE)

-----------------------------------------------------------|
------15-14-15------------15-14----------------------------|
--------------14-----x3--------14-12-11-9-7--12-11-9-7-----|
-10/12-----------12-----12----------------------------x2---|
-----------------------------------------------------------|
-----------------------------------------------------------|
 T
-----------------------------------------------------------|
-----------------------------------------------------------|
-14--19-18-14-16—15h17h19-19-15-14-15-19-19p17p15-17p15p14-|
-----------------------------------------------------------|
-----------------------------------------------------------|
-----------------------------------------------------------|
 T
-----------------------------------------------------------|
-15--------------------------------------------------------|
----14-----------------------------------------------------|
-------14h16/19--16-14-12-12h14/16—12h14/16-16-14-12-12----|
-----------------------------------------------------------|
-----------------------------------------------------------|

-----------------------------------------|
-----------------------------------------|
-12-11-9-7--12-11-9-7--------------------|
-----------------------------------------|
-----------------------------------------|
-----------------------------------------|

T==================================
-----------------------------------------|
---15---10h12---10h12—10h12—10h12--------|
-14--14----------------------------------|
-----------------------------------------|
-----------------------------------------|
-----------------------------------------|
    V
-------------------------------------------------------|
-------15-14-15---------15-14--------------------------|
---------------14-x3----------14--12-11-9-7--12-11-9-7-|x2
-10h12---------------12--------------------------------|
-------------------------------------------------------|
-------------------------------------------------------|

It’s been about three weeks now
D5
-10-------------------------------------|
-10-------------------------------------|
-7--------------------------------------|
-7--------------------------------------|
----------------------------------------|
----------------------------------------|

since I laid in her bed…
----------------------------------------|
----------------------------------------|
--------------12-11-9-7--12-11-9-7------|
----------------------------------------|
----------------------------------------|
----------------------------------------|

Nervous for my soul I need
D5
----------------------------------------|
-10-------------------------------------|
-7--------------------------------------|
-7--------------------------------------|
----------------------------------------|
----------------------------------------|

a little sorest for my head…
----------------------------------------|
----------------------------------------|
--------------12-11-9-7--12-11-9-7------|
----------------------------------------|
----------------------------------------|
----------------------------------------|

See I’ve been dancin’ with posibilty
D5
----------------------------------------|
-10-------------------------------------|
-7--------------------------------------|
-7--------------------------------------|
----------------------------------------|
----------------------------------------|

And playin with my razor blade
----------------------------------------|
----------------------------------------|
--------------12-11-9-7--12-11-9-7------|
----------------------------------------|
----------------------------------------|
----------------------------------------|

I lost the thing I thought I had
D5
-10-------------------------------------|
-10-------------------------------------|
-7--------------------------------------|
-7--------------------------------------|
----------------------------------------|
----------------------------------------|

The thing that made me think I had it made
-----10-------10------10-----10---------|
---10--10---10--10--10--10-10--10-------|
-12-------11-------9------7-------x2----|
----------------------------------------|
----------------------------------------|
----------------------------------------|
why are you laying down? I say that it beats standin’ up
F#        G
-2-2------2-2-------------------------------|
-2--2-----2--2------------------------------|
-3--------3---------------------------------|
-4--------4---------------------------------|
--------------------------------------------|
--------------------------------------------|


----------------------------------------|
----------------------------------------|
----------------------------------------|
-12-11-12—---x3-12-11-------------------|
---------12-----------------------------|
----------------------------------------|

whats got you feelin’ so down I hold up my empty cup
F#
-2-2--2-2---3-3-----------------------------|
-2--2-2--2--3--3------7-5-7—-x3-7-5---------|
-3----3-----4--------------7--------7-------|
-4----4-----5-------------------------------|
--------------------------------------------|
--------------------------------------------|


my friend as you can see I have nothin’ to bore
D        D#
-2--------3-----------------------------|
-3--------3-----------------------------|
-2--------4-----------------------------|
-4--------5-----------------------------|
-5--------------------------------------|
----------------------------------------|

----------------------------------------|
----------------------------------------|
----------------------------------------|
-12-11-12—---x3-12-11-------------------|
---------12-----------------------------|
----------------------------------------|

Invited in, I gave all I have then they showed me the door
F#        G
-2-2------2-2-------------------------------|
-2--2-----2--2------------------------------|
-3--------3---------------------------------|
-4--------4---------------------------------|
--------------------------------------------|
--------------------------------------------|

F#        G
-2-2------2-2-------------------------------|
-2--2-----2--2------------------------------|
-3--------3---------------------------------|
-4--------4---------------------------------|
--------------------------------------------|
--------------------------------------------|

--------------------------------------------|
-7-5-7—-x3-7-5-3-2-2h3p2-2------------------|
------7-------------------------------------|
--------------------------------------------|
--------------------------------------------|
--------------------------------------------|

They showed me, The door
  D
--2---------------------------------------------------------|
--3---------------------------------------------------------|
--2---------------------------------------------------------|
--0---------------------------------------------------------|
------------------------------------------------------------|
------------------------------------------------------------|
------------------------------------------------------------|
------15-14-15------------15-14-----------------------------|
--------------14-----x3--------14-12-11-9-7--12-11-9-7------|
-10/12-----------12-----12----------------------------------|
------------------------------------------------------------|
------------------------------------------------------------|
 T           T
-------------------------------15------------|
-15----------15-------15h17h19---15-15-15----|
----------------14-16------------------------|
---12-12-14----------------------------------|
---------------------------------------------|
---------------------------------------------|

---------15-14-------------------------------|
-15h17h19-----15h17p15--—15h17h19------------|
---------------------------------------------|
---------------------------------------------|
---------------------------------------------|
---------------------------------------------|
Suggest correction new What's this?
You can suggest a correction to this tab. Community and Mods will review your correction and vote to approve or reject it.
comments
We did not receive enough feedback on this tab! Please rate:
print report bad tab
1 2 3 4 5
guest
You may want to rate the tab now too:
select rating
Please do not post tabs as comments. Select "correction" instead!