Oops, an error
Loading. Please wait.

Everyones Got Something chords

version 2
version 2

Whole song

337 views 3 this week
no commentswrite comment
1 2 3 4 5
3 more votes to show rating
add to favorites
×
Save as Personal and add changes to this tab that will be seen only by you. Learn more ›
×
You can save this tab as Personal to edit and correct it or add notes. All changes will be seen only by you. Learn more »
launch autoscroll
font size
0
reset
transpose
0
reset
display chords
guitar tuner
edit
Autoscroll
slow
fast
+/-
esc
set tempo
stop
Strumming
There is no strumming pattern for this song yet. and get +5 IQ
Tuning: Standard
Capo: 1st

All chords according to capo

               
   C[032013]  
  Am[002210]   (Verse)
  Am[002213]   (Chorus) 

    
Intro:

You can plan intro like A or B. Frankly, its like both are suits.

                        A                                  

e|------------------3----------------3----------|       
B|-------1-----------------1--------------------|       
G|----------------------------------------------| (x3)  
D|----------------------------------------------|       
A|--3--------3--------3-------3-----------------|       
E|----------------------------------------------|       


    Part1                                       B

e|---------------|----3---------------------3-------------------3----------|
B|--1----1-------|---------1-----1---------------1----1------------1---1---|
G|---------------|---------------------------------------------------------|(x2)
D|--3----2---x---|---------------------------------------------------------|
A|--3----3---3---|-3----------3------3---3---------3------3--3-------3-----|
E|---------------|---------------------------------------------------------|

[Intro]

C


[Verse 1]

C              F        C         
Everyone's got something
                 F    C      Am
Something no one else can do
                F     C    G
Something no one else can see


[Chorus]

      F       C    F     C    Am
And I want you, I want you to know
              G                  F
All I have is you, all I need is you
              C     Part1
All I want is you


[Verse 2]

C              F        C  
Everyone's got something
                  F    C     Am
Darling, I'll let you guide me
                F    C    G
Tell me that you want me too


[Chorus]

      F       C     F    C     Am
And I want you, I want you to know
              G                 F
All I have is you, all I need is you
              C     Part1
All I want is you


[Bridge]

C      Am       G         C Part1    C Part1    C
Mmmmm  mmmmmm    mmmm


[Chorus]

             C    F     C     Am
And I want you, I want you to know
              G                 F
All I have is you, all I need is you
              C     Part1
All I want is you


[Outro]

C part1 x2 

            
            
Suggest correction
Creating personal tab
Creating personal tab
You can edit any tab online and save it as your Personal.

You can edit, replace or remove any tab part or add personal notes – all changes will be seen only by you.

Personal tabs can be accessed anytime from any device, even offline.
Learn more »
Give kudos to tab author, rate the tab!
1 2 3 4 5
comments
print report bad tab
guest
You may want to rate the tab now too:
select rating
Wanna post a correction for this tab? Suggest correction