Oops, an error
Loading. Please wait.

El Camino Divino chords

26 views 1 this week
no commentswrite comment
1 2 3 4 5
3 more votes to show rating
add to favorites
×
Save as Personal and add changes to this tab that will be seen only by you. Learn more ›
×
You can save this tab as Personal to edit and correct it or add notes. All changes will be seen only by you. Learn more »
launch autoscroll
font size
0
reset
transpose
0
reset
display chords
guitar tuner
edit
Autoscroll
slow
fast
+/-
esc
set tempo
stop
Strumming
There is no strumming pattern for this song yet. and get +5 IQ
Afinación: DADF#AD

Re : 000000
Sol: 555555
La : 777777

Intro (usar Slide en /)

D -------------------3/5-------------------------------------3/7-
A -12---12---10-9--9-3/5--0-----0----5-----5----7-7/9--9-7-5-3/7-
F#----0----0---------3/5----0-----0----0-----0---------------3/7-
D -------------------3/5-------------------------------------3/7-
A -------------------3/5-------------------------------------3/7-
D -0-----0---0--0--0-3/5--0---0--0---0---0---0--0--0---0-0-0-3/7-

D -------------------3/5------------------------3/5-5/7-------
A -12---12---10-9--9-3/5--0-----0----0-----0----3/5-5/7-------
F#----0----0---------3/5----0-----0----0-----0--3/5-5/7--2/3--
D -------------------3/5------------------------3/5-5/7--2/3--
A -------------------3/5------------------------3/5-5/7-------
D -0-----0---0--0--0-3/5--0---0--0---0---0---0--3/5-5/7-------


Intro

D                          G
Por qué aún no me dejas, por qué aún no me voy
D                      A
por qué aún no me dejas huir

D                          G
Por qué aún no me dejas, por qué aún no me voy
D                      A
por qué aún no me dejar huir


Intro

D                       G
Por qué aún no me dejas, no debes sufrir
D                      A
yo nunca elegí este camino

D           G   D           A
Por que no me ves, porque no me ven
D                 G        D       A
porque no me dejas huir


D   G     D   A
Huuuu, huuuuuu, (bis)

D                   G
Yo no lo sortié, no pude elegir
D                A              D
dime, quien lo ha hecho por mí

            
            
Suggest correction
Creating personal tab
Creating personal tab
You can edit any tab online and save it as your Personal.

You can edit, replace or remove any tab part or add personal notes – all changes will be seen only by you.

Personal tabs can be accessed anytime from any device, even offline.
Learn more »
Give kudos to tab author, rate the tab!
1 2 3 4 5
comments
print report bad tab
guest
Wanna post a correction for this tab? Suggest correction