Oops, an error
Loading. Please wait.

Anclado El Aire tab

53 views 1 this week
no commentswrite comment
1 2 3 4 5
3 more votes to show rating
add to favorites
×
Save as Personal and add changes to this tab that will be seen only by you. Learn more ›
×
You can save this tab as Personal to edit and correct it or add notes. All changes will be seen only by you. Learn more »
launch autoscroll
font size
0
reset
how to read this tab
guitar tuner
edit
Autoscroll
slow
fast
+/-
esc
set tempo
stop
  B7add11             B11
Tengo tantos dias de empezar de nuevo,
 B7add11           B11
de buscar el aire dentro de tu boca,
B7add11         B11
hay morena mia, flor agua marina,
B7add11          B11
piedra, musculo, dormido.

B7add11                  B11
Hay de mi estos días que por mi ventana,
B7add11           B11
entra tu perfume, sin saber que mata,
B7add11        B11
hay morena mia flor de agua marina,
  F#                      Bsus2
dime que veneno has puesto en mi cama.

CORO:
A                         B
Dime si te busco por si no te encuentro,
A                           B
dime si soy viento o es que soy desierto,
C#m                    G#m
dime si mi cuerpo sentira tu peso,
A                         B
dime si soy libre pa? empezar de nuevo,
A                          B
hay morena mia, flor de agua marina,
A                    F#      Bsus2
piedra, músculo, dormidooooooo.

B7add11                     B11
Hay de mi estos días que me duele el alma,
B7add11               B11
que me duele el beso lento de tu boca
B7add11         B11
hay morena mia flor de agua marina,
  F#                      Bsus2
dime que veneno has puesto en mi cama.

CORO:
A                         B
Dime si te busco por si no te encuentro,
A                           B
dime si soy viento o es que soy desierto,
C#m                   G#m
dime si mi cuerpo sentira tu peso,
A                         B
dime si soy libre pa? empezar de nuevo,
A                          B
hay morena mia, flor de agua marina,
A                F#           Bsus2
piedra, músculo, dormidooooooo.


CORO:
A                         B
Dime si te busco por si no te encuentro,
A                           B
dime si soy viento o es que soy desierto,
C#m                    G#m
dime si mi cuerpo sentira tu peso,
A                         B
dime si soy libre pa? empezar de nuevo,
A                          B
hay morena mia, flor de agua marina,
A                    F#      Bsus2
piedra, músculo, dormidooooooo.
B7add11  002440
B11      042440
Bsus2    224224


E||-------------------------------------------------------------------
B||---------9-7---------------------9---7-7-7-7-----------------------
G||-----7-9-----9-8-9-8---------7-9-------------9-9-9--8--------------
D||----------------------9b(10)---------------------------------------
A||-------------------------------------------------------------------
E||-------------------------------------------------------------------

B||------7----7-7-7-7-5h4-5h4-----------------------
G||-----------------------------4-5-7-5h4-5h4-------
D||--7-9--------------------------------------------
A||-------------------------------------------------
E||-------------------------------------------------

B||----------------------------------------------------
G||------------------9v-9v-9v-10v-10v-10v-11v-11v-11v
D||----------------------------------------------------
A||----------------------------------------------------
E||--------------------------------------------------

            
            
Suggest correction
Creating personal tab
Creating personal tab
You can edit any tab online and save it as your Personal.

You can edit, replace or remove any tab part or add personal notes – all changes will be seen only by you.

Personal tabs can be accessed anytime from any device, even offline.
Learn more »
Give kudos to tab author, rate the tab!
1 2 3 4 5
comments
print report bad tab
guest
Wanna post a correction for this tab? Suggest correction